PrimaNota.ru - самый крупный в мире бесплатный архив песенных текстов, аккордов, табулатур и нот


Static-x - Destroyer - текст песни, таба, бас-таба, видео

Регистрация Запомнить меня
Войти через:  Facebook Google Twitter Vk Yandex Mail.ru

Static-x - Destroyer - текст песни, таба, бас-таба, видео

Печатать
Просмотров: 177
-------------------------------------------------------------------------------
                             DESTROYER - Static-X
-------------------------------------------------------------------------------
Tabbed by: randomkiller

Tuning (low to high): Bb F Bb Eb G C

great song. i tabbed it off the video on youtube.... so it might be off a little.


INTRO/VERSE

Guitar 1(Dist.)

e|------------------------|
B|------------------------|
G|-2-2--x-2--2-2---2--2-2-|
D|-0-0--x-0--0-0---0--0-0-|
A|-0-0--x-0--0-0---0--0-0-|
E|-0-0--x-0--0-0---0--0-0-|
       
*** this can be played alot of ways, the other most accurate way is just(the octaves): 

|------------------------|
|------------------------|
|-7-7--x-7--7-7---7--7-7-|
|-x-x--x-x--x-x---x--x-x-|
|-5-5--x-5--5-5---5--5-5-|
|-0-0--x-0--0-0---0--0-0-|

CHORUS

Guitar 1(Dist.)

e|--------------------------------|
B|--------------------------------|
G|-8--7-7-7-7-7-7-8--7-7-7-7-7-7--|
D|-x--x-x-x-x-x-x-x--x-x-x-x-x-x--|
A|-6--5-5-5-5-5-5-6--5-5-5-5-5-5--|
E|--------------------------------|

Guitar 2(Dist.)

e|-5----5----5----5----5---5-5h6--|
B|----6----6----6----6---6--------|
G|--------------------------------|
D|--------------------------------|
A|--------------------------------|
E|--------------------------------|

im gonna get the solo soon, i still need to work on it. 


| /  slide up
| \  slide down
| h  hammer-on
| p  pull-off
| ~  vibrato
| +  harmonic
| x  Mute note
===============================================================================
Добавлено: 02.10.2013
Другие материалы по этой песне:
  • Аккорды и текст

Страница создана 02.03.2012
http://primanota.ru/static-x/destroyer-chords.htm
Привет, Гость.
Предлагаем пройти революционный курс по гитаре.
Подарок от PrimaNota.Ru, забирай!