PrimaNota.ru - самый крупный в мире бесплатный архив песенных текстов, аккордов, табулатур и нот


Static X - Kill Your Idols - текст песни, таба, видео

Регистрация Запомнить меня
Войти через:  Facebook Google Twitter Vk Yandex Mail.ru

Static X - Kill Your Idols - текст песни, таба, видео

Печатать
Просмотров: 80
-------------------------------------------------------------------------------
			     KILL YOUR IDOLS - Static X
-------------------------------------------------------------------------------
Tabbed by: josheat
Email: josheat@gmail.com

Tuning: Drop C, (CGCFAD)

This is my first tab. It is 100% accurate from my playing, and sounds great.


|- TP: Tremelo pick, strum as fast as you can
|- PM: Palm Mute
|- *: see comment


Intro

   GUITAR 1
 D|----------------------------|
 A|----------------------------|
 F|----------------------------|X4
 C|----------------------------|
 G|00-000-00-000-00-000-00-001-|
 C|00-000-00-000-00-000-00-001-|
  PM------------------------

   GUITAR 2
 D|----------------------------|
 A|----------------------------|
 F|----------------------------|X4
 C|----------------------------|
 G|00-000-00-000-00-000-00-001-|
 C|00-000-00-000-00-000-00-001-|
  PM------------------------

  GUITAR 1
 D|------------------------------------------------|X1
 A|------------------------------------------------|
 F|------------------------------------------------| *Tremelo pick, strum as fast as you
 C|7-7-7-7-7-7-7-7-5-5-5-5-5-5-5-5-8-8-8-8-8-8-8-8-|  Can
 G|------------------------------------------------|
 C|------------------------------------------------|
                TP

  GUITAR 2
 D|------------------------------------------------|X1
 A|------------------------------------------------|
 F|------------------------------------------------|
 C|7-7-7-7-7-7-7-7-5-5-5-5-5-5-5-5-8-8-8-8-8-8-8-8-|
 G|------------------------------------------------|
 C|------------------------------------------------|
                TP

   GUITAR 1
 D|----------------------------|X1
 A|----------------------------|
 F|----------------------------|
 C|----------------------------|
 G|00-000-00-000-00-000-00-000-|
 C|00-000-00-000-00-000-00-000-|
  PM--------------------------

   GUITAR 2
 D|----------------------------|
 A|----------------------------|
 F|----------------------------|X1
 C|----------------------------|
 G|00-000-00-000-00-000-00-000-|
 C|00-000-00-000-00-000-00-000-|
  PM--------------------------

   GUITAR 1
 D|------------------------------------------------|X1
 A|------------------------------------------------|
 F|------------------------------------------------|
 C|7-7-7-7-7-7-7-7-8-8-8-8-8-8-8-8-5-5-5-5-5-5-5-5-|
 G|------------------------------------------------|
 C|------------------------------------------------|
                 TP
 
   GUITAR 2
 D|------------------------------------------------|X1
 A|------------------------------------------------|
 F|------------------------------------------------|
 C|7-7-7-7-7-7-7-7-8-8-8-8-8-8-8-8-5-5-5-5-5-5-5-5-|
 G|------------------------------------------------|
 C|------------------------------------------------|
                TP
   
   GUITAR 1
 D|----------------------------|X1
 A|----------------------------|
 F|----------------------------|
 C|----------------------------|
 G|00-000-00-000-00-000-00-000-|
 C|00-000-00-000-00-000-00-000-|
  PM--------------------------

   GUITAR 2
 D|----------------------------|
 A|----------------------------|
 F|----------------------------|X1
 C|----------------------------|
 G|00-000-00-000-00-000-00-000-|
 C|00-000-00-000-00-000-00-000-|
  PM--------------------------


   GUITAR 1
 D|--------------|X8
 A|--------------|
 F|--------------|
 C|--------------|
 G|00-000-00-001-|
 C|00-000-00-001-|
  PM----------

   GUITAR 2
 D|-------------------------|
 A|-------------------------|
 F|-----*-------------------|
 C|111111111111111111111111-| *These are 11's NOT 1's
 G|-------------------------|
 C|-------------------------|
         TP

Verse

   GUITAR 1
 D|--------------|
 A|--------------|
 F|--------------|
 C|--------------|
 G|00-000-00-001-|
 C|00-000-00-001-|
  PM----------

   GUITAR 2
 D|--------------|
 A|--------------|
 F|--------------|
 C|--------------|
 G|00-000-00-001-|
 C|00-000-00-001-|
  PM----------

   GUITAR 1
 D|--------------------------------------------------------------------------------|X4
 A|--------------------------------------------------------------------------------|
 F|------*-------------------------------------------------------------------------|
 C|1212121212129-9-9-9-9-9-9-9-9-7-7-7-7-7-7-7-7-8-8-8-8-8-8-8-8-------------------|
 G|------------------------------------------------------------------00-000-00-000-|
 C|------------------------------------------------------------------00-000-00-000-|
                                                                     PM-----------
   GUITAR 2
 D|--------------------------------------------------------------------------------|X4
 A|--------------------------------------------------------------------------------|
 F|------*-------------------------------------------------------------------------|
 C|1212121212129-9-9-9-9-9-9-9-9-7-7-7-7-7-7-7-7-8-8-8-8-8-8-8-8-------------------|
 G|------------------------------------------------------------------00-000-00-000-|
 C|------------------------------------------------------------------00-000-00-000-|
                                                                     PM-----------
          * 12's not 1's and 2's

 Chorus

   GUITAR 1
 D|----------------------------------------------------|
 A|----------------------------------------------------|
 F|----------------------------------------------------|
 C|-5555333000----555333666----5555333000----555666333-|
 G|-5555333000----555333666----5555333000----555666333-|
 C|-5555333000----555333666----5555333000----555666333-|


   GUITAR 2
 D|----------------------------------------------------|
 A|----------------------------------------------------|
 F|----------------------------------------------------|
 C|-5555333000----555333666----5555333000----555666333-|
 G|-5555333000----555333666----5555333000----555666333-|
 C|-5555333000----555333666----5555333000----555666333-|


Verse 2

   GUITAR 1
 D|--------------|
 A|--------------|
 F|--------------|
 C|--------------|
 G|00-000-00-001-|
 C|00-000-00-001-|
  PM----------

   GUITAR 2
 D|--------------|
 A|--------------|
 F|--------------|
 C|--------------|
 G|00-000-00-001-|
 C|00-000-00-001-|
  PM----------


   GUITAR 1
 D|--------------|
 A|--------------|
 F|--------------|
 C|--------------|
 G|00-000-00-001-|
 C|00-000-00-001-|
  PM----------

   GUITAR 2
 D|-------------------------|
 A|-------------------------|
 F|-----*-------------------|
 C|111111111111111111111111-| *These are 11's NOT 1's
 G|-------------------------|
 C|-------------------------|
         TP

 Chorus 2

   GUITAR 1
 D|---------------------------------------|
 A|---------------------------------------|
 F|---------------------------------------|
 C|-5555333000----555333666---2222-3-5-7-8|
 G|-5555333000----555333666---2222-3-5-7-8|
 C|-5555333000----555333666---2222-3-5-7-8|

   GUITAR 2
 D|---------------------------------------|
 A|---------------------------------------|
 F|---------------------------------------|
 C|-5555333000----555333666---2222-3-5-7-8|
 G|-5555333000----555333666---2222-3-5-7-8|
 C|-5555333000----555333666---2222-3-5-7-8|


Bridge

   GUITAR 1
 D|-------|X32
 A|-------|
 F|-------|
 C|-------|
 G|00-000-|
 C|00-000-|
  PM-----

   GUITAR 1
 D|-------|X32
 A|-------|
 F|-------|
 C|-------|
 G|00-000-|
 C|00-000-|
  PM-----

GUITAR 1
 D|------------------------------------------------|
 A|------------------------------------------------|
 F|------------------------------------------------|
 C|7-7-7-7-7-7-7-7-5-5-5-5-5-5-5-5-8-8-8-8-8-8-8-8-|  
 G|------------------------------------------------|
 C|------------------------------------------------|
                TP
D|-------------------------------------------------|
 A|------------------------------------------------|
 F|------------------------------------------------|
 C|7-7-7-7-7-7-7-7-8-8-8-8-8-8-8-8-5-5-5-5-5-5-5-5-|
 G|------------------------------------------------|
 C|------------------------------------------------|
                 TP

  GUITAR 2
 D|------------------------------------------------|
 A|------------------------------------------------|
 F|------------------------------------------------|
 C|7-7-7-7-7-7-7-7-5-5-5-5-5-5-5-5-8-8-8-8-8-8-8-8-|
 G|------------------------------------------------|
 C|------------------------------------------------|
                TP
D|-------------------------------------------------|
 A|------------------------------------------------|
 F|------------------------------------------------|
 C|7-7-7-7-7-7-7-7-8-8-8-8-8-8-8-8-5-5-5-5-5-5-5-5-|
 G|------------------------------------------------|
 C|------------------------------------------------|
                 TP

GUITAR 1
 D|------------------------------------------------|
 A|------------------------------------------------|
 F|------------------------------------------------|
 C|7-7-7-7-7-7-7-7-5-5-5-5-5-5-5-5-8-8-8-8-8-8-8-8-|  
 G|------------------------------------------------|
 C|------------------------------------------------|
                TP
D|---------------------------------------------------------|
 A|--------------------------------------------------------|
 F|--------------------------------------------------------|
 C|7-7-7-7-7-7-7-7-8-8-8-8-8-8-8-8-12-12-12-12-12-12-12-12-|
 G|--------------------------------------------------------|
 C|--------------------------------------------------------|
                 TP

 GUITAR 2
 D|------------------------------------------------|
 A|------------------------------------------------|
 F|------------------------------------------------|
 C|7-7-7-7-7-7-7-7-5-5-5-5-5-5-5-5-8-8-8-8-8-8-8-8-|  
 G|------------------------------------------------|
 C|------------------------------------------------|
                TP
D|---------------------------------------------------------|
 A|--------------------------------------------------------|
 F|--------------------------------------------------------|
 C|7-7-7-7-7-7-7-7-8-8-8-8-8-8-8-8-12-12-12-12-12-12-12-12-|
 G|--------------------------------------------------------|
 C|--------------------------------------------------------|
                 TP

   GUITAR 1
 D|----------------|X4
 A|----------------|
 F|----------------|
 C|--------------//|
 G|00-000-00-001-//| When the Riff finishes pick slide to the chorus
 C|00-000-00-001-//|
  PM----------

   GUITAR 2
 D|---------------------------|
 A|---------------------------|
 F|-----*---------------------|
 C|111111111111111111111111-//| *These are 11's NOT 1's
 G|-------------------------//|
 C|-------------------------//| When the Riff finishes pick slide to the chorus


 Chorus 3

   GUITAR 1
 D|----------------------------------------------------|
 A|----------------------------------------------------|
 F|----------------------------------------------------|
 C|-5555333000----555333666---5555333000---2222-3-5-7-8|
 G|-5555333000----555333666---5555333000---2222-3-5-7-8|
 C|-5555333000----555333666---5555333000---2222-3-5-7-8|
         TP

   GUITAR 2
 D|----------------------------------------------------|
 A|----------------------------------------------------|
 F|----------------------------------------------------|
 C|-5555333000----555333666---5555333000---2222-3-5-7-8|
 G|-5555333000----555333666---5555333000---2222-3-5-7-8|
 C|-5555333000----555333666---5555333000---2222-3-5-7-8|
         TP

   GUITAR 1
 D|--------------|X2
 A|--------------|
 F|--------------|
 C|--------------|
 G|00-000-00-001-|
 C|00-000-00-001-|
  PM----------

   GUITAR 2
 D|-------------------------|
 A|-------------------------|
 F|-----*-------------------|
 C|111111111111111111111111-| *These are 11's NOT 1's
 G|-------------------------|
 C|-------------------------|

   GUITAR 1
 D|-------------------------------------------------------------------|
 A|-------------------------------------------------------------------|
 F|-------------------------------------------------------------------|
 C|-5555333000----555333666---5555333000---2222-3-5-7-8---2222-3-5-7-8|
 G|-5555333000----555333666---5555333000---2222-3-5-7-8---2222-3-5-7-8|
 C|-5555333000----555333666---5555333000---2222-3-5-7-8---2222-3-5-7-8|
         TP

   GUITAR 2
 D|-------------------------------------------------------------------|
 A|-------------------------------------------------------------------|
 F|-------------------------------------------------------------------|
 C|-5555333000----555333666---5555333000---2222-3-5-7-8---2222-3-5-7-8|
 G|-5555333000----555333666---5555333000---2222-3-5-7-8---2222-3-5-7-8|
 C|-5555333000----555333666---5555333000---2222-3-5-7-8---2222-3-5-7-8|
         TP

Outro

   GUITAR 1
 D|----------------------------|
 A|----------------------------|
 F|----------------------------|
 C|----------------------------|
 G|00-000-00-000-00-000-00-000-|
 C|00-000-00-000-00-000-00-000-|
  PM--------------------------

   GUITAR 2
 D|----------------------------|
 A|----------------------------|
 F|----------------------------|
 C|----------------------------|
 G|00-000-00-000-00-000-00-000-|
 C|00-000-00-000-00-000-00-000-|
  PM--------------------------
Добавлено: 22.10.2013
Другие материалы по этой песне:
  • Аккорды и текст

Страница создана 10.10.2013
http://primanota.ru/static-x-2/kill-your-idols-chords.htm
Привет, Гость.
Предлагаем пройти революционный курс по гитаре.
Подарок от PrimaNota.Ru, забирай!