PrimaNota.ru - самый крупный в мире бесплатный архив песенных текстов, аккордов, табулатур и нот


States - Asleep - таба, видео

Регистрация Запомнить меня
Войти через:  Facebook Google Twitter Vk Yandex Mail.ru

States - Asleep - таба, видео

Печатать
Просмотров: 98
_____________________________________________________________________________

                             Asleep - States
_____________________________________________________________________________

Tabbed by: Chris Bradley (Ferrets!)
UG Profile: http://profile.ultimate-guitar.com/Ferrets!/
Email: c.bradley71@yahoo.com

http://www.statesmusic.com/

Tuning: D# Standard
_____________________________________________________________________________

                          Intro/Verse

D#|-----------------------------------------------------------------| 
A#|-------5---3---2-------2---------------2---------------2---3-----|
F#|---2---------------2-------2---2---2-------2---2---2-----------2-| (3x)
C#|-0---0---0---0---4---4---4---4---4---4---4---4---5---5---5---5---|
A#|-----------------------------------------------------------------|
D#|-----------------------------------------------------------------|

D#|-----------------------------------------------------------------| 
A#|-------5---3---2-------2---------------2-------------------------|
F#|---2---------------2-------2---2---2-------2---2---2---2---2---2-| (1x)
C#|-0---0---0---0---4---4---4---4---4---4---4---4---5---5---5---5---|
A#|-----------------------------------------------------------------|
D#|-----------------------------------------------------------------|

                          Prechorus

D#|---------------------------------------------------------------|  
A#|-------7----5--------------0---------0-----------------2-------|
F#|---7-------------------2-------2---------2---------2-------2---|
C#|---------------------------------------------0-----------------|
A#|-------------------------------------------------0---0---0-----|
D#|-7---7---7---------7\2---2---2-----3---3---3-------------------|

D#|---------------------------------------------------------------|  
A#|-------7----5----------0---------0-----------------2---2---2---|
F#|---7---------------2-------2---------2---------2-----2---2---2-|
C#|-----------------------------------------0---------------------|
A#|---------------------------------------------0---0----0---0---0|
D#|-7---7---7-----7\2---2---2-----3---3---3-----------------------|

                           Chorus

D#|-----------------------------------------------------------------| 
A#|-------5---3---2-------2---------------2---------------2---3-----|
F#|---2---------------2-------2---2---2-------2---2---2-----------2-| (3x)
C#|-0---0---0---0---4---4---4---4---4---4---4---4---5---5---5---5---|
A#|-----------------------------------------------------------------|
D#|-----------------------------------------------------------------|

D#|-----------------------------------------------------------------| 
A#|-------5---3---2-------2---------------2-------------------------|
F#|---2---------------2-------2---2---2-------2---2---0---2---------| (1x)
C#|-0---0---0---0---4---4---4---4---4---4---4---4-------------4-----|
A#|-----------------------------------------------------------------|
D#|-------------------------------------------------3---3---3-------|

                    Back to Intro/Verse

D#|-----------------------------------------------------------------| 
A#|-------5---3---2-------2---------------2---------------2---3-----|
F#|---2---------------2-------2---2---2-------2---2---2-----------2-| (3x)
C#|-0---0---0---0---4---4---4---4---4---4---4---4---5---5---5---5---|
A#|-----------------------------------------------------------------|
D#|-----------------------------------------------------------------|

D#|-----------------------------------------------------------------| 
A#|-------5---3---2-------2---------------2-------------------------|
F#|---2---------------2-------2---2---2-------2---2---2---2---2---2-| (1x)
C#|-0---0---0---0---4---4---4---4---4---4---4---4---5---5---5---5---|
A#|-----------------------------------------------------------------|
D#|-----------------------------------------------------------------|

                         Prechorus

D#|---------------------------------------------------------------|  
A#|-------7----5--------------0---------0-----------------2-------|
F#|---7-------------------2-------2---------2---------2-------2---|
C#|---------------------------------------------0-----------------|
A#|-------------------------------------------------0---0---0-----|
D#|-7---7---7---------7\2---2---2-----3---3---3-------------------|

D#|---------------------------------------------------------------|  
A#|-------7----5----------0---------0-----------------2---2---2---|
F#|---7---------------2-------2---------2---------2-----2---2---2-|
C#|-----------------------------------------0---------------------|
A#|---------------------------------------------0---0----0---0---0|
D#|-7---7---7-----7\2---2---2-----3---3---3-----------------------|
  
                         Chorus 2

D#|-----------------------------------------------------------------| 
A#|-------5---3---2-------2---------------2---------------2---3-----|
F#|---2---------------2-------2---2---2-------2---2---2-----------2-| (3x)
C#|-0---0---0---0---4---4---4---4---4---4---4---4---5---5---5---5---|
A#|-----------------------------------------------------------------|
D#|-----------------------------------------------------------------|

D#|-----------------------------------------------------------------| 
A#|-------5---3---2-------2---------------2-------------------------|
F#|---2---------------2-------2---2---2-------2---2---2---2---2---2-| (1x)
C#|-0---0---0---0---4---4---4---4---4---4---4---4---5---5---5---5---|
A#|-----------------------------------------------------------------|
D#|-----------------------------------------------------------------|

                         Bridge

D#|---------------------0---------------------------0-----|  
A#|---0-------0-----------------------7-------------------|
F#|-------2--------/6-------6----/7-------7-----2-------2-|
C#|-------------------------------------------------------|
A#|-------------------------------------------------------|
D#|-3---3---3---3/5---5---5---5/7---7---7---7/2---2---2---|

D#|---------------------0---------------------------0-----|  
A#|---0-------0-----------------------7-------------------|
F#|-------2--------/6-------6----/7-------7-----6---------|
C#|-------------------------------------------------------|
A#|-------------------------------------------------------|
D#|-3---3---3---3/5---5---5---5/7---7---7---7/5---5-------|

                         Outro

D#|-----------------------------------------------------------------| 
A#|-------5---3---2-------2---------------2---------------2---3-----|
F#|---2---------------2-------2---2---2-------2---2---2-----------2-| (3x)
C#|-0---0---0---0---4---4---4---4---4---4---4---4---5---5---5---5---|
A#|-----------------------------------------------------------------|
D#|-----------------------------------------------------------------|

D#|-----------------------------------------------------------------| 
A#|-------5---3---2-------2---------------2-------------------------|
F#|---2---------------2-------2---2---2-------2---2---2---2---2---2-| (1x)
C#|-0---0---0---0---4---4---4---4---4---4---4---4---5---5---5---5---|
A#|-----------------------------------------------------------------|
D#|-----------------------------------------------------------------|
Добавлено: 26.02.2012
Другие материалы по этой песне:
  • Аккорды и текст

Страница создана 26.02.2012
http://primanota.ru/states/asleep-chords.htm
Привет, Гость.
Предлагаем пройти революционный курс по гитаре.
Подарок от PrimaNota.Ru, забирай!