PrimaNota.ru - самый крупный в мире бесплатный архив песенных текстов, аккордов, табулатур и нот


State Radio - The Waitress - текст песни, таба, видео

Регистрация Запомнить меня
Войти через:  Facebook Google Twitter Vk Yandex Mail.ru

State Radio - The Waitress - текст песни, таба, видео

Печатать
Просмотров: 122
Уроки эстрадного вокала в Санкт-Петербурге
The Waitress
By State Radio

i tabbed this by ear with one of their live versions then with the studio and i believe 
both tuned down a half step.


Intro/Bridge
e|------------------------------------------------------|
B|--------------------------------------0h2-0h2-0-------|
G|---4b------------------------------------------2------|
D|------4---2h4---4---2h4---4---2h4---------------4-----|
A|------4---------4---------4---------------------------|
E|------2---------2---------2---------------------------|


Verse(play muted)
e|---2-----5-----7-----2-----|
B|---2-----5-----9-----2-----|
G|---2-----6-----9-----2-----|
D|---4-----7-----9-----4-----|
A|---4-----7-----7-----4-----|
E|---2-----5-----------2-----|


Chorus
e|---5-----4-----2-----2-----5-----4-----7-----7-----|
B|---5-----5-----2-----2-----5-----5-----9-----9-----|
G|---6-----6-----2-----2-----6-----6-----9-----9-----|
D|---7-----6-----4-----4-----7-----6-----9-----9-----|
A|---7-----4-----4-----4-----7-----4-----7-----7-----|
E|---5-----------2-----2-----5-----------------------|
Добавлено: 25.04.2012
Другие материалы по этой песне:
  • Аккорды и текст

Страница создана 25.04.2012
http://primanota.ru/state-radio/the-waitress-chords.htm
Привет, Гость.
Предлагаем пройти революционный курс по гитаре.
Подарок от PrimaNota.Ru, забирай!