PrimaNota.ru - самый крупный в мире бесплатный архив песенных текстов, аккордов, табулатур и нот


State Lines - You Were A Hurricane - таба, видео

Регистрация Запомнить меня
Войти через:  Facebook Google Twitter Vk Yandex Mail.ru

State Lines - You Were A Hurricane - таба, видео

Печатать
Просмотров: 48
-----------------------------------------------------------------------------
                             YOU WERE A HURRICANE - State Lines
-----------------------------------------------------------------------------
Tabbed by: Mean Mr Mustard

Here you go. I'm a little unsure about the Dm in the bridge, but the rest is pretty 
close to it, so it should be good.

Tuning: Half-step down

INTRO: x2
(rhythm just play powerchords)
    C                                 G
eb|---------------------------------|---------------------------------|
Bb|---------------------------------|---------------------------------|
Gb|-5-5-5-5-5-5-4-4-4-4-4-4-4-4-4-4-|-5-5-5-5-5-5-4-4-4-4-4-4-4-4-4-4-|
Db|---------------------------------|---------------------------------|
Ab|---------------------------------|---------------------------------|
Eb|---------------------------------|---------------------------------|

   Am                                 F
eb|---------------------------------|--------------------------|
Bb|---------------------------------|-x-1-x-1-x-1-x-1-x-1-x-1--|
Gb|-5-5-5-5-5-5-4-4-4-7-7-7-7-7-7-7-|-x-2-x-2-x-2-x-2-x-2-x-2--|
Db|---------------------------------|-x-3-x-3-x-3-x-3-x-3-x-3--|
Ab|---------------------------------|-x-3-x-3-x-3-x-3-x-3-x-3--|
Eb|---------------------------------|--------------------------|


VERSE:(w/ lead below)
F                    C        G
So fond of all these memories of nothing.
F        C          G
You just lie to yourself.
F                                      C                      G
You said nothing makes much sense when looked back at through retrospect.
F                                   C           G
There were sandbags on the shore in preparation of the storm.


Then PRE-CHORUS: (w/ lead below)
Am   C    F


CHORUS:
C                           Am
You were a hurricane, I was stagnant holding on
            G               F
but it gets tiring. It gets so tiring.
C                      Am
When new wave comes to wash these shores away
G                      F
I wont be there. No, I wont be there.



Then, repeat the INTRO


INTERLUDE: (same as pre-chorus, but with lead)
Am    C    F


BRIDGE:
             C          Am
Look what we did: Lit a fire that burnt down everything.
         F                               Dm
Im still trying to catch my breath while breathing in carcinogens,
        C               Am
and the mess we made is still there to this day.
       F                                Dm
Its in every breath I take, and its the reason why I say…
Am                  G               F
some things you can never brace yourself for.


Then, repeat CHORUS x2

OUTRO: x2
C        Am         G           F


VERSE LEAD:
    F                        C          G
eb|---0-------------0-----------0----------0-----|
Bb|-------1------------1----------1-----------1--|
Gb|-2------------2-----------0-------------------|
Db|-3------------3-----------2----------0--------|
Ab|-3------------3-----------3----------2--------|
Eb|-------------------------------------3--------|


PRE-CHORUS LEAD:
    Am      C       F
eb|-------------------------1--|
Bb|-1-1-1---1-1-1---1-1-1-1-1--|
Gb|-2-2-2---0-0-0---2-2-2-2-2--|
Db|-2-2-2-0-2-2-2-0-3-3-3-3-3--|
Ab|-0-0-0-0-3-3-3-0-3-3-3-3-3--|
Eb|----------------------------|
    pm. . . . . . . . . . . .


INTERLUDE LEAD:
   Am       C       F
eb|-----------------------------------|
Bb|-------3-------3--------3----------|
Gb|---5-------5-------5--------5---5--|
Db|-5---5-------5-------5--------5----|
Ab|-----------------------------------|
Eb|-----------------------------------|


OUTRO:
    C                            Am
eb|-----8-----12h8---10h8---8--|-----8-----12h8---10h8---8--|
Bb|-8-------8------8------8----|-8-------8------8------8----|
Gb|----------------------------|----------------------------|
Db|----------------------------|----------------------------|
Ab|----------------------------|----------------------------|
Eb|----------------------------|----------------------------|

    G                            F
eb|-----8-----12h8---10h8---8--|------8-------8-------8---|
Bb|-8-------8------8------8----|-10------10-------10------|
Gb|----------------------------|--------------------------|
Db|----------------------------|--------------------------|
Ab|----------------------------|--------------------------|
Eb|----------------------------|--------------------------|
Добавлено: 03.10.2013
Другие материалы по этой песне:
  • Аккорды и текст

Страница создана 11.07.2013
http://primanota.ru/state-lines/you-were-a-hurricane-chords.htm
Привет, Гость.
Предлагаем пройти революционный курс по гитаре.
Подарок от PrimaNota.Ru, забирай!