PrimaNota.ru - самый крупный в мире бесплатный архив песенных текстов, аккордов, табулатур и нот


State Lines - Probably In A Notebook - таба, видео

Регистрация Запомнить меня
Войти через:  Facebook Google Twitter Vk Yandex Mail.ru

State Lines - Probably In A Notebook - таба, видео

Печатать
Просмотров: 79
-----------------------------------------------------------------------------
                  PROBABLY IN A NOTEBOOK - State Lines
-----------------------------------------------------------------------------
Tuning: They play in a 1/4th step down, halfway b/w standard and half-step down. Unless 
you play along with the album, you won't notice though

Intro:
eb|----------------------------------------------------------------------|
Bb|----------------------------------------------------------------------|
Gb|-5--5---5---5-5--7---7---7---7--7-------------------------------------|
Db|-5--5---5---5-5--7---7---7---7--7-3---3---3--3-3---3----3---3---3-----|
Ab|-3--3---3---3-3--5---5---5---5--5-3---3---3--3-3---3----3---3---3-----|
bb|----------------------------------1---1---1--1-1---1----1---1---1-----|
  |                                                                      |
eb|----------------------------------------------------------------------|
Bb|----886655--55-------886655--55-------5---5------5--5---5---5----5----|
Gb|-5-5------77--7775--5------77--7775-55--55--55-45-45--55--55--55---55-|
Db|------------------------------------------------h--h------------------|
Ab|----------------------------------------------------------------------|
bb|----------------------------------------------------------------------|


Verse: x4
eb|-----------------------------------|
Bb|-----------------------------------|
Gb|-5-5-5557-777-777------------------|
Db|-5-5-5557-777-7773-3-3333-333-333--|
Ab|-3-3-3335-555-5553-3-3333-333-333--|
bb|-----------------1-1-1111-111-111--|
  |                                   |
eb|-----------------------------------|
Bb|--------6---5-----------6---5------|
Gb|-5---555--55--5555-5-555--55--555--|
Db|-----------------------------------|
Ab|-----------------------------------|
bb|-----------------------------------|

eb|----------------------------------|-----------------------------|
Bb|----------------------------------|-----------------------------|
Gb|----------------------------------|-5-5-5557-777-777------------|
Db|-5---------------3----------------|-5-5-5557-777-7773-3-3333----|
Ab|-5-555555555555553-33333333333333-|-3-3-3335-555-5553-3-3333----|
bb|-3-333333333333331-11111111111111-|-----------------1-1-1111----|
  |                                  |
eb|----------------------------------|-----------------------------|
Bb|----------------------------------|---8-8108--------------------|
Gb|-7-----------7975-----------------|-9----h--9--7-7975-----------|
Db|----------------------------------|---------------h-------------|
Ab|---5555555555------33333333333333-|-----------------------------|
bb|----------------------------------|-----------------------------|
      pm........      ..............


Bridge: x2
eb|----------------------------------------------|
Bb|----------------------------------------------|
Gb|---5--------7--------5--------2---------------|
Db|---5--------7--------7--------3---------------|
Ab|-3--------5----------7--------3---------------|
bb|-------------------5--------1-----------------|
  |                                              |
eb|-12-------12-------12-------12----------------|
Bb|---13-------13-------13-------13--------------|
Gb|----------------------------------910101097---|
Db|-----------------------------------h-----h----|
Ab|----------------------------------------------|
bb|----------------------------------------------|


Repeat Intro, Verse, and Bridge again



Interlude: x3.5
eb|----------------------------------|
Bb|----------------------------------|
Gb|----------------------------------|
Db|-5---------------7-------3--------|
Ab|-5-555555555555557-7777773-333333-|
bb|-3-333333333333335-5555551-111111-|
  |   pm............  ......  ......
  |
eb|-------h-----h--------------------|
Bb|--8---81010-108--8----------------|
Gb|-9---9---------9---9---9-7-7-799--|
Db|------------------------------h---|
Ab|----------------------------------|
bb|----------------------------------|


Outro: x2
eb|-------------------------------------------------------|
Bb|-------------------------------------------------------|
Gb|-5--5--5-5-5-7---7--7-7-7------------------------------|
Db|-5--5--5-5-5-7---7--7-7-7-7---7--7-7-7-3---3--3-3-3-3--|
Ab|-3--3--3-3-3-5---5--5-5-5-7---7--7-7-7-3---3--3-3-3-3--|
bb|--------------------------5---5--5-5-5-1---1--1-1-1-1--|
  |                                                       |
eb|-------------------------------------------------------|
Bb|-------------------------------------------------------|
Gb|-5--5--5-5-5-7---7--7-7-7-9---9--9-9-9-10--10-109-7-5--|
Db|-x--x--x-x-x-x---x--x-x-x-x---x--x-x-x-x---x--x-x-x-x--|
Ab|-3--3--3-3-3-5---5--5-5-5-7---7--7-7-7-8---8--8-7-5-3--|
bb|-------------------------------------------------------|

eb|--------------------------------------------------------|
Bb|--------------------------------------------------------|
Gb|-5--5--5-5-5-7---7--7-7-7-------------------------------|
Db|-5--5--5-5-5-7---7--7-7-7-7---7--7-7-7-3---3-3---3-3-3--|
Ab|-3--3--3-3-3-5---5--5-5-5-7---7--7-7-7-3---3-3---3-3-3--|
bb|--------------------------5---5--5-5-5-1---1-1---1-1-1--|
  |                                                        |
eb|--------------------------------------------------------|
Bb|--------------------------------------------------------|
Gb|-5--5--5-5-5-4---4--4-4-4-12--12-1214-10--10-10--101010-|
Db|-x--x--x-x-x-x---x--x-x-x-x---x--x-x---x---x--x---x-x-x-|
Ab|-3--3--3-3-3-2---2--2-2-2-10--10-1012--8---8--8---8-8-8-|
bb|--------------------------------------------------------|
Добавлено: 27.07.2013
Другие материалы по этой песне:
  • Аккорды и текст

Страница создана 27.07.2013
http://primanota.ru/state-lines/probably-in-a-notebook-chords.htm
Привет, Гость.
Предлагаем пройти революционный курс по гитаре.
Подарок от PrimaNota.Ru, забирай!