PrimaNota.ru - самый крупный в мире бесплатный архив песенных текстов, аккордов, табулатур и нот


State Lines - My Friends - таба, видео

Регистрация Запомнить меня
Войти через:  Facebook Google Twitter Vk Yandex Mail.ru

State Lines - My Friends - таба, видео

Печатать
Просмотров: 75
-----------------------------------------------------------------------------
                             MY FRIENDS - State Lines
-----------------------------------------------------------------------------
Tabbed by: Mean Mr Mustard
Email: gotchristo@comcast.net

Tuning: Half-Step down

Alright, I tried to make this tab as complete as I could, but I just used a chord chart 
when it was easier. Should be pretty correct. Enjoy.


INTRO: 8x
eb|-----------------------------|-----------------------------|
Bb|------------------8----------|------------------8----------|
Gb|-----7h9---7---------9---7---|-----7h9---7---------9---7---|
Db|-9------------9--------------|-9------------9--------------|
Ab|-----------------------------|-----------------------------|
Eb|-----------------------------|-----------------------------|
  |
  | comes in after 4x
  | G             Am              C
eb|---------------------------------------------------------------|
Bb|---------------------------------------------------------------|
Gb|---------------------------------------------------------------|
Db|-------------------------------5-5-5-5-5-5-5-5-5-5-5-5-5-5-5-5-|
Ab|-5-5-5-5-5-5-5-7-7-7-7-7-7-7-7-3-3-3-3-3-3-3-3-3-3-3-3-3-3-3-3-|
Eb|-3-3-3-3-3-3-3-5-5-5-5-5-5-5-5---------------------------------|
   pm. . . . . . . . . . . . . . . . . . . . . . . . . . . . . .

eb|----------------------------------|
Bb|----------------------------------|
Gb|-9-9-9-9-9-9-9-9-1212121212121212-|
Db|-x-x-x-x-x-x-x-x-x-x-x-x-x-x-x-x--|
Ab|-7-7-7-7-7-7-7-7-1010101010101010-|
Eb|----------------------------------|
  |
  | Em
eb|---------------------------------|
Bb|---------------------------------|
Gb|---------------------------------|
Db|-----------------2-2-2-2-2-2-2-2-|
Ab|-2-2-2-2-2-2-2-2-2-2-2-2-2-2-2-2-|
Eb|-0-0-0-0-0-0-0-0-0-0-0-0-0-0-0-0-|
    pm. . . . . . .




VERSE:
    C         G        Em         D
eb|-----------------------------------------|
Bb|-----------------------------------------|
Gb|---5----5------------------------7----7--|
Db|-5-5--5-5----5----5----2----2--7-7--7-7--|
Ab|-3-3--3-3--5-5--5-5--2-2--2-2--5-5--5-5--|
Eb|-----------3-3--3-3--0-0--0-0------------|


        C                 G          Em      D
Well Im not sure how many miles left on this old blue rusted van.
C  G           Em                     D
We pray, Betsy show us the coast like we know you can.
C          G                   Em         D
And well instill the life and ideals weve dreamed.
        C               G                 Em               D
Collect salt from the Atlantic coast, all the way to the Pacific sea



CHORUS: (same as rhythm guitar in the intro)
G    Am      C       x4



VERSE:
      C                   G                Em       D
And I cant count how many nights Ive spent tired, exhausted, and alone.
C      G           Em          D
Fueled by a dream of traveling home and the road.
C        G                  Em          D
Its more than a choice, wed never fit in 9 to 5,
C         G          Em             D
suits and ties negotiating for some corporation.



PRE-CHORUS:
Am            Bm        C
And I wont forget these streets Ive played on,
   Em            G                C
but we've got to make something of ourselves.

eb|-----------------------------------------------------------------|
Bb|-----------------------------------------------------------------|
Gb|--9-9-9-9-9-9-9--11111111111111-1212121212121212-12121212121212--|
Db|--x-x-x-x-x-x-x--x-x-x-x-x-x-x--x-x-x-x-x-x-x-x--x-x-x-x-x-x-x---|
Ab|--7-7-7-7-7-7-7--9-9-9-9-9-9-9--1010101010101010-10101010101010--|
Eb|-----------------------------------------------------------------|
  |
  | Em              G              C
eb|----------------------------------------------------------------|
Bb|----------------------------------------------------------------|
Gb|--------------------------------5-5-5-5-5-5-5-5--5-5-5-5-5-5-5--|
Db|--2-2-2-2-2-2-2--5-5-5-5-5-5-5--5-5-5-5-5-5-5-5--5-5-5-5-5-5-5--|
Ab|--2-2-2-2-2-2-2--5-5-5-5-5-5-5--3-3-3-3-3-3-3-3--3-3-3-3-3-3-3--|
Eb|--0-0-0-0-0-0-0--3-3-3-3-3-3-3----------------------------------|



CHORUS:
G             Am      C
Well call wherever we are home.
G             Am      C
Well call wherever we are home.
    G        Am            C
And we might die trying to cross state lines but
     G       Am               C
well never regret it, no well never regret it.



BRIDGE:
C                     G          Em
My friends have heavy hearts and cultured heads.
C             G              Em
    They know everything and anything.
C                 G              Em
  And I swear one day well all belong to regret
C         G           Em
     like salt to the ocean.

   C                G       Em
eb|-------5---------8---7---5-------|
Bb|---8---------8---------------8---|
Gb|-7---7-----7---7---7---7---7---7-|
Db|---------------------------------|
Ab|---------------------------------|
Eb|---------------------------------|


Build-up:
    G             Am              C
eb|---------------------------------------------------------------|
Bb|---------------------------------------------------------------|
Gb|---------------------------------------------------------------|
Db|-------------------------------5-5-5-5-5-5-5-5-5-5-5-5-5-5-5-5-|
Ab|-5-5-5-5-5-5-5-7-7-7-7-7-7-7-7-3-3-3-3-3-3-3-3-3-3-3-3-3-3-3-3-|
Eb|-3-3-3-3-3-3-3-5-5-5-5-5-5-5-5---------------------------------|
   pm. . . . . . . . . . . . . . . . . . . . . . . . . . . . . .



CHORUS:
G             Am      C
Well call wherever we are home.
G             Am      C
Well call wherever we are home.
    G        Am            C
And we might die trying to cross state lines but
     G       Am               C
well never regret it, no well never regret it.

End on a G.
Добавлено: 28.09.2013
Другие материалы по этой песне:
  • Аккорды и текст

Страница создана 28.09.2013
http://primanota.ru/state-lines/my-friends-chords.htm
Привет, Гость.
Предлагаем пройти революционный курс по гитаре.
Подарок от PrimaNota.Ru, забирай!