PrimaNota.ru - самый крупный в мире бесплатный архив песенных текстов, аккордов, табулатур и нот


State Lines - Getaway - таба, видео

Регистрация Запомнить меня
Войти через:  Facebook Google Twitter Vk Yandex Mail.ru

State Lines - Getaway - таба, видео

Печатать
Просмотров: 73
-----------------------------------------------------------------------------
                             GETAWAY - State Lines
-----------------------------------------------------------------------------
Tabbed by: Mean Mr Mustard
Email: gotchristo@comcast.net

Tuning: Half-step down

Great song, tried my best to figure this one out. This is how I do it.


INTRO:
   play 2x
eb|------------------------------------|
Bb|-7-------7h8------7h8-------8-------|
Gb|------------------------------------|
Db|----9--------9--------9-------9-----|
Ab|------10-------10-------10------10--|
Eb|------------------------------------|

eb|---------------------------|---------------------------|
Bb|-------10-----------10-----|-------8-----------8-------|
Gb|---7--------7---7--------7-|---7-------7---7-------7---|
Db|-7---7----7---7---7----7---|-5---5---5---5---5---5---5-|
Ab|---------------------------|---------------------------|
Eb|---------------------------|---------------------------|

eb|---------------------------|-----------------|
Bb|-------10-----------10-----|-8---8---8---8---|
Gb|---7--------7---7--------7-|-7---7---7---7---|
Db|-7---7----7---7---7----7---|-5---5---5---5---|
Ab|---------------------------|-----------------|
Eb|---------------------------|-----------------|

   Then, strum around with this a bit:
eb|-------------------|
Bb|------3------------|
Gb|------0------------|
Db|-2-2--2------------|
Ab|-3-3--3------------|
Eb|-------------------|


   INTRO PART 2:
eb|--------------------------------|-------------------------------------|
Bb|--8-8-8-8-8-8-8-7-7-7-7-7-8-8-8-|--8-8-8-8-8-8-8-10-10-10-10-8-8-8-8--|
Gb|--------------------------------|-------------------------------------|
Db|--------------------------------|-------------------------------------|
Ab|--------------------------------|-------------------------------------|
Eb|--------------------------------|-------------------------------------|
  |                                |
  | Em                             |  C
eb|--------------------------------|-------------------------------------|
Bb|--------------------------------|-------------------------------------|
Gb|--------------------------------|-------------------------------------|
Db|--------------------------------|--5-5-5-5-5-5-5-5-5-5-5-5-5-5-5-5-5--|
Ab|--2-2-2-2-2-2-2-2-2-2-2-2-2-2-2-|--3-3-3-3-3-3-3-3-3-3-3-3-3-3-3-3-3--|
Eb|--0-0-0-0-0-0-0-0-0-0-0-0-0-0-0-|-------------------------------------|


eb|--------------------------------|-----------------------------------|
Bb|--8-8-8-8-8-8-8-7-7-7-7-7-8-8-8-|-----------------------------------|
Gb|--------------------------------|--7-7-7-7-7-7-7-7-7-7-7-7-7-7-7----|
Db|--------------------------------|-----------------------------------|
Ab|--------------------------------|-----------------------------------|
Eb|--------------------------------|-----------------------------------|
  |                                |
  | G                              | Am
eb|--------------------------------|-----------------------------------|
Bb|--------------------------------|-----------------------------------|
Gb|--------------------------------|-----------------------------------|
Db|--------------------------------|-----------------------------------|
Ab|--5-5-5-5-5-5-5-5-5-5-5-5-5-5-5-|--7-7-7-7-7-7-7-7-7-7-7-7-7-7-7----|
Eb|--3-3-3-3-3-3-3-3-3-3-3-3-3-3-3-|--5-5-5-5-5-5-5-5-5-5-5-5-5-5-5----|


VERSE: (lead plays intro part 2, just palm muted)
Em                  C                 G           Am
Act like we didnt see the cars on the side of the Meadowbrook
Em                       C                                  
cracking windows just to breathe a shot of fresh air and the 
G                Am
cold November breeze. 



CHORUS:
C      (then, little lead fill)

C                G     Em
When it descends, this silence is deafening.
C               G         Em
And it descends, and this silence is deafening. 
C               G          Em
                  and this silence is deafening. 
C               G          Em
                  and this silence
(little lead fill)
eb|------------|
Bb|-7---7-7-8--|
Gb|---9--------|
Db|------------|
Ab|------------|
Eb|------------|


BRIDGE:
G                                            
And a ground thats stained with leaves is all that I can see 
C
through the window and the yellow lines pacing above me from the 
Em
back seat. Getting high to pass the time, getting high all the time.
C
You do this far too much, I know, I know.

play this a bunch:
eb|-7---10---8---7---|-7---10---8---7b8r7-|
Bb|---8----8---8---8-|---8----8---8-------|
Gb|------------------|--------------------|
Db|------------------|--------------------|
Ab|------------------|--------------------|
Eb|------------------|--------------------|


OUTRO:
G        Em              C
And this drive is just a getaway I could never get away from.
G        Em              C
And this drive is just a getaway I could never get away from.
G        Em              C
And this drive is just a getaway I could never get away from.
G        Em              C             
And this drive is just a getaway 
Добавлено: 03.08.2013
Другие материалы по этой песне:
  • Аккорды и текст

Страница создана 03.08.2013
http://primanota.ru/state-lines/getaway-chords.htm
Привет, Гость.
Предлагаем пройти революционный курс по гитаре.
Подарок от PrimaNota.Ru, забирай!