PrimaNota.ru - самый крупный в мире бесплатный архив песенных текстов, аккордов, табулатур и нот


State Lines - Cheers Belmonte - таба, видео

Регистрация Запомнить меня
Войти через:  Facebook Google Twitter Vk Yandex Mail.ru

State Lines - Cheers Belmonte - таба, видео

Печатать
Просмотров: 49
-----------------------------------------------------------------------------
                     CHEERS, BELMONTE - State Lines
-----------------------------------------------------------------------------
Tuning: They actually play in 1/4th step down, so halfway b/w standard and half-step 
down. But if you're not playing with the record, it won't make a difference.

Intro:
eb|--------------------------------------------------------------|
Bb|-5-5----5-5-----7-7----7-7-----5-5----5-5-----9-9-----5-5-----|
Gb|-6-6----6-6-----7-7----7-7-----6-6----6-6-----9-9-----6-6-----|
Db|-7-7----7-7-----7-7----7-7-----7-7----7-7-----9-9-----7-7-----|
Ab|-0-0----0-0-----5-5----5-5-----0-0----0-0-----7-7-----0-0-----|
Eb|--------------------------------------------------------------|

Verse:
eb|----------------------------------------------------|
Bb|--------------7--------------------------9-9--------|
Gb|-6------------7------------6-------------9-9----6---|
Db|-7------------7------------7-------------9-9----7---|
Ab|-7------------5------------7-------------7-7----7---|
Eb|-5-------------------------5--------------------5---|
  |                                                    |
eb|----------------------------------------------------|
Bb|----5------5-----7------7------5------5--9-9----5---|
Gb|--6---6--6--6--7---7--7---7--6---6--6--6-9-9----6---|
Db|-7------7-----7------7------7------7-----9-9----7---|
Ab|----------------------------------------------------|
Eb|----------------------------------------------------|


Chorus: x4
eb|----------------------------------------------------|
Bb|----------------------------------------------------|
Gb|-6--6--6-6-6-9--9--9-9-9--7--7--7-7-7-7---7--7-7-7--|
Db|-7--7--7-7-7-9--9--9-9-9--7--7--7-7-7-7---7--7-7-7--|
Ab|-7--7--7-7-7-7--7--7-7-7--5--5--5-5-5-5---5--5-5-5--|
Eb|-5--5--5-5-5-0--0--0-0-0----------------------------|


Post-Chorus: x2 ("In the end...")
eb|------------------------------------------------------------------|
Bb|------------------------------------------------------------------|
Gb|-6-6-6-6-1-1-1-1-6-6-6-6-6-6-6-6-6-6-6-6-1-1-1-1-6-6-6-6-6-6-6-6--|
Db|-7-7-7-7-2-2-2-2-7-7-7-7-7-7-7-7-7-7-7-7-2-2-2-2-7-7-7-7-7-7-7-7--|
Ab|-7-7-7-7-2-2-2-2-4-4-4-4-5-5-5-5-7-7-7-7-2-2-2-2-5-5-5-5-5-5-5-5--|
Eb|-5-5-5-5-0-0-0-0-----------------5-5-5-5-0-0-0-0------------------|


Pre-Verse/Verse: x2
eb|----------------------------------------------------------------------|
Bb|-------------------------------------------------9-9-9--5--5----------|
Gb|-6-6-6-6-6-6-6-6-7-7-7-7-7-7-7-7-6-6-6-6-6-6-6-6-9-9-9--6--6--6h7h6---|
Db|-7-7-7-7-7-7-7-7-7-7-7-7-7-7-7-7-7-7-7-7-7-7-7-7-9-9-9--7--7--7-------|
Ab|-7-7-7-7-7-7-7-7-5-5-5-5-5-5-5-5-7-7-7-7-7-7-7-7-7-7-7--0--0--0-------|
Eb|-5-5-5-5-5-5-5-5-----------------5-5-5-5-5-5-5-5----------------------|
  |                                                                      |
eb|----------------------------------------------------------------------|
Bb|---------5-0-------------5-0-------------5-0-----9--9---5-------------|
Gb|-----6-------6-------6-------6-------6-------6---9--9---6-------------|
Db|---7---7-------7---7---7-------7---7---7-------7-9--9---7-------------|
Ab|-0---------------5---------------0------------------------------------|
Eb|----------------------------------------------------------------------|


Chorus: x4
eb|----------------------------------------------------|
Bb|----------------------------------------------------|
Gb|-6--6--6-6-6-9--9--9-9-9--7--7--7-7-7-7---7--7-7-7--|
Db|-7--7--7-7-7-9--9--9-9-9--7--7--7-7-7-7---7--7-7-7--|
Ab|-7--7--7-7-7-7--7--7-7-7--5--5--5-5-5-5---5--5-5-5--|
Eb|-5--5--5-5-5-0--0--0-0-0----------------------------|


Bridge: x12
eb|---------------------------------|
Bb|---------------------------------|
Gb|---2---2---2---2---2--/6---6---6-|
Db|-4---0-------0---4---0-------0---|
Ab|---------4---------------4-------|
Eb|---------------------------------|


Outro: x4
eb|---------------------------------|
Bb|---------------------------------|
Gb|-6-6-6-6-6-6-6-6-6-6-6-6-6-6-6-6-|
Db|-7-7-7-7-7-7-7-7-7-7-7-7-7-7-7-7-|
Ab|-0-0-0-0-0-0-0-0-4-4-4-4-5-5-5-5-|
Eb|---------------------------------|
  | pm. . . . . . . . . . . . . . . |
  |                                 |
eb|---------------------------------|
Bb|---------5-0-------------5-0-----|
Gb|-----6-------6-------6-------6---|
Db|---7---7-------7---7---7-------7-|
Ab|-0-------------------------------|
Eb|---------------------------------|
Добавлено: 23.07.2013
Другие материалы по этой песне:
  • Аккорды и текст

Страница создана 23.07.2013
http://primanota.ru/state-lines/cheers-belmonte-chords.htm
Привет, Гость.
Предлагаем пройти революционный курс по гитаре.
Подарок от PrimaNota.Ru, забирай!