PrimaNota.ru - самый крупный в мире бесплатный архив песенных текстов, аккордов, табулатур и нот


State Champs - Secrets - аккорды и текст, таба, видео

Регистрация Запомнить меня
Войти через:  Facebook Google Twitter Vk Yandex Mail.ru

State Champs - Secrets - аккорды и текст, таба, видео

Печатать
Просмотров: 153
Уроки эстрадного вокала в Санкт-Петербурге
Secrets
State Champs
Tabbed By: Fabio BlenderBR

 Enjoy!

        **Tuning: Half Step Down**
            ( Eb Ab Db Gb Bb Eb )

 - Intro:

A     A  
E     A     E


 - Verse:

E
  You caught me in the right place at the right time

So I'll just dive right in
E 
  Say you've got a blank space in your right mind
                       Bm      
Well here's my second wind
A                                Bm   
Oh, your idea of me blown away, away
E                                            
Something in the past tense didn't make sense for this to follow through
E
What did you expect to happen? Were you mad then
                     Bm   A
With nothing left to do?
A                          
Oh, you're making me sick. What is this?



 - Pre Chorus:

             F#m              A
Had we been drawn to close before?
            F#m                               A
Because I dropped my forgiveness, it's lying face down (on the floor)



 - Chorus:

E                                       Bm   A
I've got more secrets than you'll ever know
                                  Bm  E
Another year and you won't let it go
                                     Bm  C#m
Too many times I told myself to hold on
                          A                   E/G#
But it's too late for me, now I'm as good as gone



 - Verse 2:

E
  Funny how we go way back and we said that

We wouldn't let this come between
E
  Everything and is it true that I could look past
                       Bm    
Memories and stay obscene?
A                                Bm   
Oh, your idea of me blown away, away
E
Something's telling me I never could have ruined everything you want in life
E                                                                         
Because you never put in effort, and the truth is you were never doing it right
A
Oh, you're making me sick. What is this?



 - Pre Chorus:

         F#m             A
Am I the one you can't ignore?
            F#m                                A
Because I dropped my forgiveness, it's lying face down (on the floor)



 - Chorus:

E                                       Bm   A
I've got more secrets than you'll ever know
                                  Bm  E
Another year and you won't let it go
                                     Bm  C#m
Too many times I told myself to hold on
                          A                   E/G#
But it's too late for me, now I'm as good as gone



 - Bridge:

A   E

eb|-------------2-----------|-------------------------|-------------2-----------|-------------------------|
Bb|----5-----5-----5-----5--|----5-----5--4--5-----5--|----5-----5-----5-----5--|----5-----5--4--5-----5--|
Gb|-2-----2-----------2-----|-2-----2-----------2-----|-------------------------|-------------------2-----|
Db|-------------------------|-------------------------|-2-----2-----------2-----|-2-----2-----------------| 2x
Ab|-------------------------|-------------------------|-------------------------|-------------------------|
Eb|-------------------------|-------------------------|-------------------------|-------------------------|

eb|-------------2-----------|-------------------------|-------------2-----------|-------------------------|
Bb|----5-----5-----5-----5--|----5-----5--4--5-----5--|----5-----5-----5-----5--|-------------------------|
Gb|-2-----2-----------2-----|-2-----2-----------2-----|-------------------------|-------------------------|
Db|-------------------------|-------------------------|-2-----2-----------2-----|-2-----------------------| 1x
Ab|-------------------------|-------------------------|-------------------------|-------------------------|
Eb|-------------------------|-------------------------|-------------------------|-------------------------|

         A
It turns out I don't go down that easily

You'll never really know what this means to me
    E
And no, it wasn't ever too much to hold

But you stole your own self control
          A
It turns out I don't go down that easily

You'll never really know what this means to me
    E
And no, it wasn't ever too much to hold so just know

         A
It turns out I don't go down that easily

You'll never really know what this means to me
    E
And no, it wasn't ever too much to hold

But you stole your own self control
          A
It turns out I don't go down that easily

You'll never really know what this means to me
    E                                           Asus2
And no, it wasn't ever too much to hold so just know



 - Chorus:

E                                       Bm   A
I've got more secrets than you'll ever know
                                  Bm  E
Another year and you won't let it go
                                     Bm  C#m
Too many times I told myself to hold on
                          A                   E/G#
But it's too late for me, now I'm as good as gone

E                       Bm   A
Not everybody wants an enemy
                                          Bm   E
Call me the culprit and that's all you'll see
                                               Bm   C#m
You were responsible for finding a way to catch on
                          A                  E/G#   E
But it's too late for me, now I'm as good as gone 

__________
Hope you liked!

Tabbed by: Fabio BlenderBR
Добавлено: 11.10.2015
Другие материалы по этой песне:

Страница создана 11.10.2015
http://primanota.ru/state-champs/secrets-chords.htm
Привет, Гость.
Предлагаем пройти революционный курс по гитаре.
Подарок от PrimaNota.Ru, забирай!