PrimaNota.ru - самый крупный в мире бесплатный архив песенных текстов, аккордов, табулатур и нот


State Champs - Leave You In The Dark - аккорды и текст, таба, видео

Регистрация Запомнить меня
Войти через:  Facebook Google Twitter Vk Yandex Mail.ru

State Champs - Leave You In The Dark - аккорды и текст, таба, видео

Печатать
Просмотров: 74
Leave You In The Dark
State Champs
-----------------------------------------------------------------------------
                   Leave You In The Dark - State Champs
-----------------------------------------------------------------------------

Hello guys! Andrew here this is my 3rd tab so im still kinda new to this and it's not 
100% correct!
Do tell me if i made a mistake thanks!
Here's a acoustic cover if you're having trouble:
http://www.youtube.com/watch?v=-PJxYsX9_Ic&index=52&list=WL
**Credits to Angelo Munji for the awesome cover!**

Standard: EADGBe
Capo 4th fret

Chords
     A*    E      A      D*
e|---0-----0------0------0----|
B|---0-----0------2------3----|
G|---2-----2------2------2----|
D|---2-----2------2------0----|
A|---0-----1------0------x----|
E|---2-----0------0------x----|

h= Hammer-on

Intro: A* E A A x2

[Verse 1]
A*                E             A                A
It's all the same I'd say you're losing me again
A*                E             A                 A
If truth be told I'd blame the monsters in your head
A*     E         A        A                         A*       E         A              A
You'll blame me........when you turn off the lights and you try to say that you 
can't sleep

[Chorus]
   A*         E  A          D*
e|-0----------0--0----------0-----------------------------------------------|
B|-0----------0--2----------3-----------------------------------------------|
G|-2----------2--2----------2-----------------------------------------------|
D|-2--6h8h6---2--2----------0-----------------------------------------------|
A|-0-------7--1--0--4h6h4---x-----------------------------------------------|
E|-2----------0--0-------5--x-----------------------------------------------|

And it goes to show how you make your way into my dreams again

And the less we know the more we break right apart so we'll raise the stakes and show them
                    A* E A A
That we're different

[Verse 2]
A*                E               A              A
It's all the same, I've seen this way too many times
A*             E           A              A
I'd leave you in the dark. It comes as no surprise
       A*                         E                           A                 A
But that's if I wanted to and we both know that I'm not over you and i know I don't 
say it
A*              E           A                A
But I love you too and it's starting to make sense

[Chorus]
   A*         E  A          D*
e|-0----------0--0----------0-----------------------------------------------|
B|-2----------0--2----------3-----------------------------------------------|
G|-2----------2--2----------2-----------------------------------------------|
D|-2--6h8h6---2--2----------0-----------------------------------------------|
A|-0-------7--1--0--4h6h4---x-----------------------------------------------|
E|-2----------0--0-------5--x-----------------------------------------------|

And it goes to show how you make your way into my dreams again

And the less we know the more we break right apart so we'll raise the stakes and show them

[Bridge]
A*           E
I thought I told you once
A                               A                         A*   E
We've got it all mapped out and I'm gonna be the better man
    A                   A
And that's the start to this
A*           E
I thought I told you once
A                               A                         A*   E
We've got it all mapped out and I'm gonna be a better man
    A                      A (Strum once)                      A*
And though it's been said, it's finally starting to make sense

[End]
E               A                  A*             E      A         A*
And it goes to show how you make your way into my dreams again
E               A                  A*                 E                          A
And the less we know the more we break right apart so we'll raise the stakes and show them
                 A*                    E                         A
Yeah the more we break right apart so we'll raise the stakes and show them
Добавлено: 11.11.2014
Другие материалы по этой песне:
  • Аккорды и текст

Страница создана 11.11.2014
http://primanota.ru/state-champs/leave-you-in-dark-chords.htm
Привет, Гость.
Предлагаем пройти революционный курс по гитаре.
Подарок от PrimaNota.Ru, забирай!