PrimaNota.ru - самый крупный в мире бесплатный архив песенных текстов, аккордов, табулатур и нот


State Champs - Hard To Please - бас-таба, видео

Регистрация Запомнить меня
Войти через:  Facebook Google Twitter Vk Yandex Mail.ru

State Champs - Hard To Please - бас-таба, видео

Печатать
Просмотров: 65
-------------------------------------------------------------------------------
                             HARD TO PLEASE - State Champs
-------------------------------------------------------------------------------
Tabbed by: Paris
E-mail: wevegotalotofhistory@gmail.com

Tuning: Drop D

G|---------------------------------------------------------------------------|
D|---------------------------------------------------------------------------|
A|--2----------------------------------------x2------------------------------|
D|-----4--2--2-2222--6--1--2--222--444---------------------------------------|


G|------------------------------------------------------------------------------|
D|------------------------------------------------------------------------------|
A|--------------------------------------------------------------------2222------|
E|--1122--1122--xxxx--4466--4466--xxxx--1122--1122--xxxx--4466--4466------------|


G|------------------------------------------------------------------------------|
D|------------------------------------------------------------------------------|
A|--------------2222--------------2244--------------2222--------------2222------|
E|--1122--4466--------1122--4466--------1122--4466--------1122--4466------------|


G|------------------------------------------------------------------------------|
D|------------------------------------------------------------------------------|
A|--2----------------------------------------x2---------------------------------|
E|-----4--2--2-2222--6--1--2--222--444------------------------------------------|


G|------------------------------------------------------------------------------|
D|------------------------------------------------------------------------------|
A|------------------------------------------------------------------------------|
E|--222--222--444--444--222--222--666--111--222--222--444--444--222--222--66661-|


G|------------------------------------------------------------------------------|
D|------------------------------------------------------------------------------|
A|------------------------------------------------------------------------------|
E|--2xxxxxx--44xxxx44xx--2xxxxxx--66xxxx11xx--2xxxxxx--44xxxx44xx--2xxxxxx------|

G|------------------------------------------------------------------------------|
D|------------------------------------------------------------------------------|
A|------------------------------------------------------------------------------|
E|--666x1-----------------------------------------------------------------------|


G|------------------------------------------------------------------------------|
D|------------------------------------------------------------------------------|
A|--2----------------------------------------x2---------------------------------|
E|-----4--2--2-2222--6--1--2--222--444------------------------------------------|


G|------------------------------------------------------------------------------|
D|------------------------------------------------------------------------------|
A|--------------------2222222-----------------------------2222222---------------|
E|--11111112-22-2222---------4-44-4444--11111112-22-2222---------4-44-44442~----|


G|------------------------------------------------------------------------------|
D|---Rest-----------------------------------------------------------------------|
A|------------------------------------------------------------------------------|
E|--------------2----6--4--2----6--4--2----6--4--22222222--6666--444444---------|


G|------------------------------------------------------------------------------|
D|------------------------------------------------------------------------------|
A|--------------------------------------x4--------------------------------------|
E|--22222222--xx--666--xx-444---------------------------------------------------|


G|------------------------------------------------------------------------------|
D|-----REST---------------------------------------------------------------------|
A|------------------------------------------------------------------------------|
E|--------------------------------------------6--1--2--xx-----------------------|


G|------------------------------------------------------------------------------|
D|------------------------------------------------------------------------------|
A|--2----------------------------------------x2---------------------------------|
E|-----4--2--2-2222--6--1--2--222--444------------------------------------------|


G|------------------------------------------------------------------------------|
D|------------------------------------------------------------------------------|
A|--------------------2222222-----------------x2--------------------------------|
E|--11111112-22-2222---------4-44-4444------------------------------------------|


G|------------------------------------------------------------------------------|
D|------------------------------------------------------------------------------|
A|------------------22222222------------------------22222222--------------------|
E|--1111111122222222--------444444441111111122222222--------44444444--2~--------|



| /  slide up
| \  slide down
| h  hammer-on
| p  pull-off
| ~  vibrato
| +  harmonic
| x  Mute note
===============================================================================
Добавлено: 22.04.2016
Другие материалы по этой песне:

Страница создана 07.08.2014
http://primanota.ru/state-champs/hard-to-please-chords.htm
Привет, Гость.
Предлагаем пройти революционный курс по гитаре.
Подарок от PrimaNota.Ru, забирай!