PrimaNota.ru - самый крупный в мире бесплатный архив песенных текстов, аккордов, табулатур и нот


Starting Line - Threes A Charm - текст песни, таба, видео

Регистрация Запомнить меня
Войти через:  Facebook Google Twitter Vk Yandex Mail.ru

Starting Line - Threes A Charm - текст песни, таба, видео

Печатать
Просмотров: 132
Title:      Three's A Charm
Band:       The Starting Line
Tabbed by:  kenshiT of Iligan City
E-mail:     kenpuge07@yahoo.com

So here it goes.. 

Tuning: Standard [e B G D A E]

Legend: s - slide
        p - pull-off
        h - hammer-on
        x - dead string
        ! - break

Chord Pattern:   D A Bm G

I suggest a fingering like this for the first part. It would much be easier:

e|---1-------------| LEGEND:
B|---1----4--------| 1 - point finger
G|---1----3--------| 2 - middle finger
D|---1-------------| 3 - ring finger
A|---1-------------| 4 - smallest finger
E|---x-------------|


START:

GTR I: (clean)
e|---------------------------------------------|
B|-------7---7p5---8----8--8s7---7-------------|
G|-----7---7-----7----7--------7---------------| (5x)    
D|---------------------------------------------|
A|---5-----------------------------------------|
E|---------------------------------------------|

e|-------------------------|
B|-------7---5h7-----------|
G|-----7---7-----7---------|    
D|-----------------5-------|
A|---5---------------------|
E|-------------------------|

Then..

GTR I: (distorted) -pls listen to the song to have the right timing.
e|---x-xx-x-xx--x--x-x-x-x-x--x--x--x-----x-x-x-x--x-x--x-xx------|
B|---x-xx-x-xx--x--x-x-x-x-x--x--x--x-----x-x-x-x--x-x--x-xx------|
G|---7-77s9-99s11s12121212s11-14-1414s12-121212s11-1111s9-99------|
D|---x-xx-x-xx--x--x-x-x-x-x--x--x--x-----x-x-x-x--x-x--x-xx------|
A|---5-55s7-77s-9s10101010s9--12-1212s10-101010s9--9-9-s7-77------|
E|---x-xx-x-xx--x--x-x-x-x-x--x--x--x-----x-x-x-x--x-x--x-xx------|

e|---x-xx-x-xx--x--x-x-x-x-x--x-x---x-x---x-x---xx------|
B|---x-xx-x-xx--x--x-x-x-x-x--x-x---x-x---x-x---xx------|
G|---7-77s9-99s11s12121212s11-1414!-1212!-1111!-99!-----|
D|---x-xx-x-xx--x--x-x-x-x-x--x-x---x-x---x-x---xx------|
A|---5-55s7-77s-9s10101010s9--1212!-1010!-9-9!--77!-----|
E|---x-xx-x-xx--x--x-x-x-x-x--x-x---x-x---x-x---xx------|

GTR II: (distorted)

e|---x------x------x--------|
B|---x------x------x--------|
G|---7------x------4--------|
D|---7-(x8)-7-(x8)-4-(x8)---|
A|---5------7------2--------|
E|---x------5------x--------|

e|--x-x---x-x---x-x---xx------|
B|--x-x---x-x---x-x---xx------|
G|--1414!-1212!-1111!-99!-----|
D|--x-x---x-x---x-x---xx------|
A|--1212!-1010!-9-9!--77!-----|
E|--x-x---x-x---x-x---xx------|

Then..

GTR I: (distorted) 
e|---x-x-x-x-x-xx-------|
B|---x-x-x-x-x-xx-------|
G|---7s9-7s6-7-77-------| (6x) 
D|---x-x-x-x-x-xx-------| 
A|---5s7-5s4-5-55-------|
E|---x-x-x-x-x-xx-------|

e|---x-x-x-x--x-x---x-x---x-x---xx----|
B|---x-x-x-x--x-x---x-x---x-x---xx----|
G|---7s9-7s6--1414!-1212!-1111!-99!---|
D|---x-x-x-x--x-x---x-x---x-x---xx----|
A|---5s7-5s4--1212!-1010!-9-9!--77!---|
E|---x-x-x-x--x-x---x-x---x-x---xx----|

GTR II: (distorted)
e|---x-xx-x-xx--x--x-x-x-x-x--x--x--x-----x-x-x-x--x-x--x-xx------|
B|---x-xx-x-xx--x--x-x-x-x-x--x--x--x-----x-x-x-x--x-x--x-xx------|
G|---7-77s9-99s11s12121212s11-14-1414s12-121212s11-1111s9-99------|
D|---x-xx-x-xx--x--x-x-x-x-x--x--x--x-----x-x-x-x--x-x--x-xx------|
A|---5-55s7-77s-9s10101010s9--12-1212s10-101010s9--9-9-s7-77------|
E|---x-xx-x-xx--x--x-x-x-x-x--x--x--x-----x-x-x-x--x-x--x-xx------|

e|---x-xx-x-xx--x--x-x-x-x-x--x-x---x-x---x-x---xx------|
B|---x-xx-x-xx--x--x-x-x-x-x--x-x---x-x---x-x---xx------|
G|---7-77s9-99s11s12121212s11-1414!-1212!-1111!-99!-----|
D|---x-xx-x-xx--x--x-x-x-x-x--x-x---x-x---x-x---xx------|
A|---5-55s7-77s-9s10101010s9--1212!-1010!-9-9!--77!-----|
E|---x-xx-x-xx--x--x-x-x-x-x--x-x---x-x---x-x---xx------|

GTR I and II: (simultaneous)
e|---x-x-x-x-x---|
B|---x-x-x-x-x---|
G|---7s9-7s6-7---| 
D|---x-x-x-x-x---| 
A|---5s7-5s4-5---|
E|---x-x-x-x-x---|

note: GTR I and II are played simultaneously.

_END_


This work is dedicated to Ash Edres. Mahal kita. :)
And to my roommates: dodong, rj, and kenny.

For comments, suggestions, death threats, bomb threats, love letters:
E-mail:     kenpuge07@yahoo.com
Mobile No.: 09104574313/09051714977

Keep rockin'! \m/
Добавлено: 18.03.2012
Другие материалы по этой песне:
  • Аккорды и текст

Страница создана 18.03.2012
http://primanota.ru/starting-line/threes-a-charm-chords.htm
Привет, Гость.
Предлагаем пройти революционный курс по гитаре.
Подарок от PrimaNota.Ru, забирай!