PrimaNota.ru - самый крупный в мире бесплатный архив песенных текстов, аккордов, табулатур и нот


Stars - Look Away - аккорды и текст, видео

Регистрация Запомнить меня
Войти через:  Facebook Google Twitter Vk Yandex Mail.ru

Stars - Look Away - аккорды и текст, видео

Печатать
Просмотров: 133
Look Away
Stars
Look Away
Artist: Stars
Album: No One Is Lost (2014)

Capo 2

Intro:
      C
e|----0--0--0--0--0--0--0--0------|
B|----1--1--0--0--1--1--3--3------|
G|----0--0--0--0--0--0--0--0------|
D|----2--2--2--2--2--2--2--2------|
A|----3--3--3--3--3--3--3--3------|
E|--------------------------------|        (x2)

Verse 1:
F7M            G
Two sides to, three stories
Em                 Am
Never whine and forget about it this time
F7M                      G                  
If you want what you've already got, 
      Em        Am
Look away
F7M          G
Toughen up, Valentine's day
Em                Am
Wasn't meant, for my kind anyway
F7M                         G
There's no leaving her for everything, 
         Em        Am
So look away

Chorus:
        F7M         Dsus2
Take me out, to the lake
         Em         C
Break it down, and dive into our mistakes
       F7M         Dsus2
Take me in, to the fire
          Em   C
It's just us, even for a little while
        F7M          G
There's nothing, to say
       C       
Look away

(repeat intro riff)

Verse 2:
F7M                 G
At seventeen your, hair was gold
Em                     Am
You bet me once, we'd never get this old
F7M                        G
Nobody tells you that you might one day, 
      Em        Am
Look away
F7M               G
Through the door, I can see the light 
Em                       Am
I'm not surprised, he's always been a good guy
F7M                  G
It's a game that we both learned how to play, 
      Em        Am
Look away

Chorus

Bridge:
Bb      C      Am      Dm
          Bb                   C
Can your first, still be your last
   Am                         Dm  
A little bit of shame and a mountain of the past
Bb                 C
Nobody wrote, the perfect book
Am            Dm
On a life without a second look
Bb                     C
I won't close the door, with all this rain
            Am        C
If there's nobody to blame


        F7M         Dsus2
Take me out, to the lake
          Em        C
Break it down, and dive into our mistakes
       F7M         Dsus2
Take me in, to the fire
          Em       C
It's just us, and for a little while
           F7M         G
There was nothing, to say
F7M          G
Toughen up, Valentine's day
Em                Am
Wasn't meant, for our kind anyway
F7M                       G
If you want what you've already got, 
      Em         Am
Look away
      F7M         G
Look away
      F7M         G
Look away
       C
Look away
       C
Look away

Chords, see tab below for example:
F7M  :  133210 
G:      320000
Em:     022000
Am:     x02210 
Dsus2:  xx0230 (or use Dm)
C:      x32010 or x35553
Bb:     x13331
Dm:     xx0231


To mimic the keyboard notes in the verses, try this:
     F7M          G           Em          Am
e|---(0)-0--0--0--0--0--0--0--0--0--0--0--0--0--0--0-------------------------|
B|----1--1--0--0--1--1--0--0--1--1--0--0--1--1--0--0-------------------------|
G|----2--2--2--2--0--0--0--0--0--0--0--0--2--2--2--2-------------------------|
D|----3--3--3--3--0--0--0--0--2--2--2--2--2--2--2--2-------------------------|
A|----3--3--3--3--2--2--2--2--2--2--2--2--0--0--0--0-------------------------|
E|----1--1--1--1--3--3--3--3--0--0--0--0-------------------------------------|
The open e string is optional for verses
Don't use this pattern for the chorus or bridge

riff in the middle of each verse after "look away" between Am and F7M  :
e|--0--0---1p0---------------------------------------------------------------|
B|--1--1------3h1------------------------------------------------------------|
G|--2--2--2------------------------------------------------------------------|
D|--2--2---------------------------------------------------------------------|
A|--0--0---------------------------------------------------------------------|
E|---------------------------------------------------------------------------|


Добавлено: 25.07.2015
Другие материалы по этой песне:
  • Аккорды и текст

Страница создана 25.07.2015
http://primanota.ru/stars/look-away-chords.htm
Привет, Гость.
Предлагаем пройти революционный курс по гитаре.
Подарок от PrimaNota.Ru, забирай!