PrimaNota.ru - самый крупный в мире бесплатный архив песенных текстов, аккордов, табулатур и нот


Stars And Stripes - Shaved For Battle - бас-таба, видео

Регистрация Запомнить меня
Войти через:  Facebook Google Twitter Vk Yandex Mail.ru

Stars And Stripes - Shaved For Battle - бас-таба, видео

Печатать
Просмотров: 67
Уроки эстрадного вокала в Санкт-Петербурге
Intro only guitar

When drums come in, slide from note to note
G|----------------|
D|----------------|
A|--3/7-----------|
E|----------------|

''GO!..''
G|-----------------------------------------------|
D|------6-7-9--7-6-------------------------------|
A|--77-7-----------7-777-4-4-222-0-0-0-0000------|
E|-----------------------------------------------|

G|-----------------------------------------------|
D|------6-7-9--7-6-------------------------------|
A|--77-7-----------7-777-4-4-222-0-0-0-0000------|
E|-----------------------------------------------|

Chorus:

''We had enough with this social state!...''
G|------------------------------------------|
D|------------------------------------------|
A|----------7-7-7-7777-4-4-222-0-0-0-0000---|
E|-0-0-0-000--------------------------------|

''Everyone thinks there better than us..''
G|------------------------------------------|
D|------------------------------------------|
A|-7-7-7-777----------4-4-222-0-0-0-0000----|
E|----------0-0-0-0000----------------------|

''They think we lay down...''
G|------------------------------------------|
D|------------------------------------------|
A|----------7-7-7-7777-4-4-222-0-0-0-0000---|
E|-0-0-0-000--------------------------------|

''Well they know...''
G|------------------------------------------|
D|------------------------------------------|
A|-7-7-7-777----------4-4-222-0-0-0-0000----|
E|----------0-0-0-0000----------------------|

Refrain:
   
''Our heads are shaved for battle..''     ''And they will kick the shit..''
G|-------------------------------------------------------------|
D|-2-2------------2-2------------2-2---------------------------|
A|----2-2-4-4-000----2-2-4-4-000----2-2-4-4-000--22-222/55-555-|
E|-------------------------------------------------------------|

G|-----------------------------------------------|
D|------6-7-9--7-6-------------------------------|
A|--77-7-----------7-777-4-4-222-0-0-0-0000------|
E|-----------------------------------------------|

G|-----------------------------------------------|
D|------6-7-9--7-6-------------------------------|
A|--77-7-----------7-777-4-4-222-0-0-0-0000------|
E|-----------------------------------------------|

Chorus

''whats the matter with...''
G|------------------------------------------|
D|------------------------------------------|
A|----------7-7-7-7777-4-4-222-0-0-0-0000---|
E|-0-0-0-000--------------------------------|

''causing fights...''
G|------------------------------------------|
D|------------------------------------------|
A|-7-7-7-777----------4-4-222-0-0-0-0000----|
E|----------0-0-0-0000----------------------|

''well punks to nothing...''
G|------------------------------------------|
D|------------------------------------------|
A|----------7-766-44-22-4-4-222-0-0-0-0000---|
E|-0-0-0-000--------------------------------|

''we gotta fight if...''
G|------------------------------------------|
D|------------------------------------------|
A|-7-7-7-777----------4-4-222-0-0-0-0000----|
E|----------0-0-0-0000----------------------|

Refrain:
   
''Our heads are shaved for battle..''     ''And they will kick the shit..''
G|-------------------------------------------------------------------|
D|-2-2------------2-2------------2-2---------------------------------|
A|----2-2-4-4-000----2-2-4-4-000----2-2-4-4-000--22-222/55-555-77777-|
E|-------------------------------------------------------------------|

Bridge:

G|-----------------------------|
D|-----------------------------|
A|----------------------22-222-|
E|-33-333/44-444-00-000--------|

G|-------------------------------------|
D|-------------------------------------|
A|---------------------7-766-44-22-4-4-|
E|-33-333/44-444-00-000----------------|

G|-----------------------------|
D|-----------------------------|
A|----------------------22-222-|
E|-33-333/44-444-00-000--------|

G|-------------------------------------------------------|
D|-------------------6-7-9--7-6--------------------------|
A|---------------77-7-----------7-777-4-4-222-0-0-0-0000-|
E|-33-333/44-444-----------------------------------------|

G|-----------------------------------------------|
D|------6-7-9--7-6-------------------------------|
A|--77-7-----------7-777-4-4-222-0-0-0-0000------|
E|-----------------------------------------------|

Chorus:

''skinhead gangs all over...''
G|------------------------------------------|
D|------------------------------------------|
A|----------7-7-7-7777-4-4-222-0-0-0-0000---|
E|-0-0-0-000--------------------------------|

''fight no more..''
G|------------------------------------------|
D|------------------------------------------|
A|-7-7-7-777----------4-4-222-0-0-0-0000----|
E|----------0-0-0-0000----------------------|

''join together and...''
G|------------------------------------------|
D|------------------------------------------|
A|----------7-7-7-7777-4-4-222-0-0-0-0000---|
E|-0-0-0-000--------------------------------|

''cause we all know...''
G|--------------------------------------------|
D|--------------------------------------------|
A|-7-7-7-777----------4-4-222-0-0-0-000-0-0-0-|
E|----------0-0-0-0000------------------------|

Refrain:

''Our heads are shaved for battle..''     ''And they will kick the shit out of..''
G|-------------------------------------------------------------|
D|-2-2------------2-2------------2-2---------------------------|
A|----2-2-4-4-000----2-2-4-4-000----2-2-4-4-000--22-222/55-555-|
E|-------------------------------------------------------------|

G|-------------------------------------------------------------|
D|-2-2------------2-2------------2-2---------------------------|
A|----2-2-4-4-000----2-2-4-4-000----2-2-4-4-000--22-222/55-555-|
E|-------------------------------------------------------------|

Ending:

''Out of you'' ''Out of you''  ''Out of you!''
G|----------------------------------|
D|----------------------------------|
A|-7------------7----------------7--|
E|----------------------------------|

Thanks for enjoying my tab, please contact me if you have notes or improvements.
Cheers

http://www.youtube.com/user/TrojanSkinhead94
Добавлено: 01.11.2013
Другие материалы по этой песне:
  • Аккорды и текст

Страница создана 01.11.2013
http://primanota.ru/stars-and-stripes/shaved-for-battle-chords.htm
Привет, Гость.
Предлагаем пройти революционный курс по гитаре.
Подарок от PrimaNota.Ru, забирай!