PrimaNota.ru - самый крупный в мире бесплатный архив песенных текстов, аккордов, табулатур и нот


Starkill - New Infernal Rebirth - таба, видео

Регистрация Запомнить меня
Войти через:  Facebook Google Twitter Vk Yandex Mail.ru

Starkill - New Infernal Rebirth - таба, видео

Печатать
Просмотров: 161
Уроки эстрадного вокала в Санкт-Петербурге
-------------------------------------------------------------------------------
                             New Infernal Rebirth - Starkill
-------------------------------------------------------------------------------
Tabbed by: Obsimyx                                           Tuning: D Standard

0:00
d|-----------------------------------------------------------------------------------------------------|
A|-----------------------------------------------------------------------------------------------------|
F|-----------------------------------------------------------------------------------------------------|
C|-9-------9-10-9-7-9-------9-10-9-7-9-------9-10-9-7-10-14--9-------9-10-9-7-9-------9-10-9-7-9-------|
G|-7-7-7-7-7-8--7-5-7-7-7-7-7-8--7-5-7-7-7-7-7-8--7-5-8--12--7-7-7-7-7-8--7-5-7-7-7-7-7-8--7-5-7-7-7-7-|
D|-----------------------------------------------------------------------------------------------------|
     * * *            * * *            * * *                   * * *            * * *            * * *

                |0:21
d|--------------|-------------------------------------------------------------------------------|
A|--------------|-------------------------------------------------------------------------------|
F|--------------|-------------------------------------------------------------------------------|
C|9-10-9-7-5-4--|---------------------------------------------------------------9-9-9-9-7-7-7-7-|
G|7-8--7-5-3-2--|-10-10-10-10-10-10-10-10-10-10-10-10-10-10-9-9-9-9-9-9-9-9-9-9-----------------|
D|--------------|-------------------------------------------------------------------------------|

d|-------------------------------------------------------------------------------|
A|-------------------------------------------------------------------------------|
F|-------------------------------------------------------------------------------|
C|---------------------------------------------------------------9-9-9-9-7-7-7-7-|
G|-10-10-10-10-10-10-10-10-10-10-10-10-10-10-9-9-9-9-9-9-9-9-9-9-----------------|
D|-------------------------------------------------------------------------------|

d|---------------------------------------------------------------------------|
A|---------------------------------------------------------------------------|
F|---------------------------------------------------------------------------|
C|-------------------------------------------7-7-7-7-7-7-7-7-7-7-7-7-7-7-7-7-|
G|-10-10-10-10-10-10-10-10-10-10-10-10-10-10---------------------------------|
D|---------------------------------------------------------------------------|

d|--------------------------------------------------------------------------|
A|--------------------------------------------------------------------------|
F|--------------------------------------------------------------------------|
C|------------------------------------------9-9-9-9-9-9-9-9-9-9-9-9-9-9-9-9-|
G|10-10-10-10-10-10-10-10-10-10-10-10-10-10---------------------------------|
D|--------------------------------------------------------------------------|

0:42
Solo Rhythm
d|----------------------------------------------------------------------|
A|----------------------------------------------------------------------|
F|----------------------------------------------------------------------|
C|-2----------------------------------2---------------------------------|
G|-0--0-0-0-0-0-0-8-6-0-10-8-0-12-10--0--0-0-0-0-0-0-8-6-0-10-8-0-12-10-|
D|----------------------------------------------------------------------|
      * * * * * *     *      *           * * * * * *     *      *

                                                                        |1:02
d|----------------------------------------------------------------------|-----------|
A|----------------------------------------------------------------------|-----------|
F|----------------------------------------------------------------------|-----------|
C|----------------------------------------------------------------------|-2--2--2-2-|
G|-2----------------------------------2---------------------------------|-0--0--0-0-|
D|-0--0-0-0-0-0-0-8-6-0-10-8-0-12-10--0--0-0-0-0-0-0-8-6-0-10-8-0-12-10-|-----------|
      * * * * * *     *      *           * * * * * *     *      *   

Solo Lead
d|----------7-8-7----------------7-10-7----------------7-12-7-15-12-7-15-12-7-15-12-7-15-12-7----------|
A|--------8-------8------------8--------8------------8----------------------------------------8--------|
F|------7-----------7--------7------------7--------9--------------------------------------------9------|
C|----9---------------9----9----------------9----9------------------------------------------------9----|
G|-10-------------------10--------------------10----------------------------------------------------10-|
D|-----------------------------------------------------------------------------------------------------|
                                                              t       t       t       t 

d-------------12-17-12----------------------12-17-12-19-17-12-19-17-12-19-17-12-21-17-12-21-17-12-21-17-12-|
A|---------13----------13----------------13----------------------------------------------------------------|
F|------14----------------14----------14-------------------------------------------------------------------|
C|---14----------------------14----14----------------------------------------------------------------------|
G|15----------------------------15-------------------------------------------------------------------------|
D|---------------------------------------------------------------------------------------------------------|
                                                     t        t        t        t        t        t        

d|23-17-12-24-17-12----------------------7-10-7----------------------12-17-12-------------|
A|------------------13-----------------8--------8-----------------13----------13----------|
F|---------------------14------------7------------7------------14----------------14-------|
C|------------------------14-------9----------------9-------14----------------------14----|
G|---------------------------15-10--------------------10-15----------------------------15-|
D|----------------------------------------------------------------------------------------|
  t        t

d|------------15-20-15----------------------15-18--16--15--16----------15b-|
A|---------16----------16----------------16--------------------16--18--18b-|
F|------17----------------17----------17-----------------------------------|
C|---17----------------------17----17--------------------------------------|
G|18----------------------------18-----------------------------------------|
D|-------------------------------------------------------------------------|

d|-18-14-12-18-14-12-18-14-12-------------------20-14-12-20-14-12-20-14-12----------------------------|
A|----------------------------18-14-12-18-14-12----------------------------18-14-12-18-14-12-18-14-12-|
F|----------------------------------------------------------------------------------------------------|
C|----------------------------------------------------------------------------------------------------|
G|----------------------------------------------------------------------------------------------------|
D|----------------------------------------------------------------------------------------------------|
   t        t        t        t        t        t        t        t        t        t        t               

d|18-14-12-18-14-12-18-14-12-15-11-9-15-11-9-18-17-16-15-17-16-15-14-15-14-13-12-17-16-15-14-15-14-13-12-|
A|-------------------------------------------------------------------------------------------------------|
F|-------------------------------------------------------------------------------------------------------|
C|-------------------------------------------------------------------------------------------------------|
G|-------------------------------------------------------------------------------------------------------|
D|-------------------------------------------------------------------------------------------------------|
  t        t        t        t       t

d|-------------------------------------------12--------14----15-----17------ps/-ps\-ps/-ps\-ps/-ps\-|
A|12-13-14-15-14-13-12-13-14-15-14-13-12------------------------------------ps/-ps\-ps/-ps\-ps/-ps\-|
F|----------------------------------------9------9-11------11----12-----14--------------------------|
C|--------------------------------------------------------------------------------------------------|
G|--------------------------------------------------------------------------------------------------|
D|--------------------------------------------------------------------------------------------------|

1:03
d|-------------------------------------------------------------------------------|
A|-------------------------------------------------------------------------------|
F|-------------------------------------------------------------------------------|
C|---------------------------------------------------------------9-9-9-9-7-7-7-7-|
G|-10-10-10-10-10-10-10-10-10-10-10-10-10-10-9-9-9-9-9-9-9-9-9-9-----------------|
D|-------------------------------------------------------------------------------|

d|-------------------------------------------------------------------------------|
A|-------------------------------------------------------------------------------|
F|-------------------------------------------------------------------------------|
C|---------------------------------------------------------------9-9-9-9-7-7-7-7-|
G|-10-10-10-10-10-10-10-10-10-10-10-10-10-10-9-9-9-9-9-9-9-9-9-9-----------------|
D|-------------------------------------------------------------------------------|

d|---------------------------------------------------------------------------|
A|---------------------------------------------------------------------------|
F|---------------------------------------------------------------------------|
C|-------------------------------------------7-7-7-7-7-7-7-7-7-7-7-7-7-7-7-7-|
G|-10-10-10-10-10-10-10-10-10-10-10-10-10-10---------------------------------|
D|---------------------------------------------------------------------------|

d|--------------------------------------------------------------------------|
A|--------------------------------------------------------------------------|
F|--------------------------------------------------------------------------|
C|------------------------------------------9-9-9-9-9-9-9-9-9-9-9-9-9-9-9-9-|
G|10-10-10-10-10-10-10-10-10-10-10-10-10-10---------------------------------|
D|--------------------------------------------------------------------------|

1:24
d|-----------------------------------------------------------------------------------------------------|
A|-----------------------------------------------------------------------------------------------------|
F|-----------------------------------------------------------------------------------------------------|
C|-9-------9-10-9-7-9-------9-10-9-7-9-------9-10-9-7-10-14--9-------9-10-9-7-9-------9-10-9-7-9-------|
G|-7-7-7-7-7-8--7-5-7-7-7-7-7-8--7-5-7-7-7-7-7-8--7-5-8--12--7-7-7-7-7-8--7-5-7-7-7-7-7-8--7-5-7-7-7-7-|
D|-----------------------------------------------------------------------------------------------------|
     * * *            * * *            * * *                   * * *            * * *            * * *

              |1:45
              |Solo Rhythm
d|------------|---------------------------------------------------------------------------------------------|
A|------------|---------------------------------------------------------------------------------------------|
F|------------|---------------------------------------------------------------------------------------------|
C|9-10-9-7-5-4|---------------------------------------------------------------2-----------------------------|
G|7-8--7-5-3-2|-2------------------------------4------------------------------0--0-0-0-0-0-0-0-0-0-0-0-0-0-0|
D|------------|-0--0-0-0-0-0-0-0-0-0-0-0-0-0-0-2--2-2-2-2-2-2-2-2-2-2-2-2-2-2-------------------------------|
                   * * * * * * * * * * * * * *    * * * * * * * * * * * * * *    * * * * * * * * * * * * * *

                                  |Solo Lead
d|--------------------------------|-17-17-17-17-|-15-17-18-20-18-20-18-17-15-------------------------|
A|--------------------------------|-------------|----------------------------20-18-17-15-------------|
F|--------------------------------|-------------|----------------------------------------18-16-15-13-|
C|-2------------------------------|-------------|----------------------------------------------------|
G|-0--0-0-0-0-0-0-0-0-0-0-0-0-0-0-|-------------|----------------------------------------------------|
D|--------------------------------|-------------|----------------------------------------------------|
      * * * * * * * * * * * * * * |gradually               t     t           t           t
                                   bend

d|-----17-----17-----17-------------------------------------------------------------------------------|
A|-16b----16b----16b----16b-16b-pb16~-----------------------------------------------12-14-15-17-16-14-|
F|----------------------------------------------12-14-15-17-16-14----------12-14-15-------------------|
C|-------------------------------------12-14-15-------------------17-16-14----------------------------|
G|----------------------------------------------------------------------------------------------------|
D|----------------------------------------------------------------------------------------------------|

d|17-16-15-14-19-18-17-16-17-16-15-14-15-14-13-12-17-16-15-14------12-7-3-12-7-3-12-7-3---------------------|
A|------------------------------------------------------------15~-----------------------12-7-3-12-7-3-12-7-3|
F|----------------------------------------------------------------------------------------------------------|
C|----------------------------------------------------------------------------------------------------------|
G|----------------------------------------------------------------------------------------------------------|
D|----------------------------------------------------------------------------------------------------------|
                                                                   t      t      t      t      t      t

d|-14-8-5-14-8-5-14-8-5----------------------12-7-3-12-7-3-12-7-3----------------------14-8-5-14-8-5-|
A|----------------------12-7-3-12-7-3-12-7-3----------------------12-7-3-12-7-3-12-7-3---------------|
F|---------------------------------------------------------------------------------------------------|
C|---------------------------------------------------------------------------------------------------|
G|---------------------------------------------------------------------------------------------------|
D|---------------------------------------------------------------------------------------------------|
   t      t      t      t      t      t      t      t      t      t      t      t      t      t

d|--------------12-7-3-12-7-3---------------14-8-5-14-8-5---------------12-7-3-12-7-3---------------|
A|12-8-5-12-8-5---------------12-7-3-12-7-3---------------12-8-5-12-8-5---------------12-7-3-12-7-3-|
F|--------------------------------------------------------------------------------------------------|
C|--------------------------------------------------------------------------------------------------|
G|--------------------------------------------------------------------------------------------------|
D|--------------------------------------------------------------------------------------------------|
  t      t      t      t      t      t      t      t      t      t      t      t      t      t

d|-8-7-6-5-10-9-8-7-12-11-10-9-10-9-8-7-8-7-6-5-10-9-8-7-12-11-10-9-15-14-13-12-16-15-14-13-17-16-15-14-|
A|------------------------------------------------------------------------------------------------------|
F|------------------------------------------------------------------------------------------------------|
C|------------------------------------------------------------------------------------------------------|
G|------------------------------------------------------------------------------------------------------|
D|------------------------------------------------------------------------------------------------------|

                              |2:06
d|19-18-17-16-21-20-19-18-24~-|---------------------------------------------------------------|
A|----------------------------|---------------------------------------------------------------|
F|----------------------------|-9-----7---9-----------------9-----7---9-----------------------|
C|----------------------------|-9-----7---9-----9-----9-----9-----7---9-----9-----9-----8-----|
G|----------------------------|-7-----5---7-----9-----9-----7-----5---7-----9-----9-----8-----|
D|----------------------------|-----------------7-----7---------------------7-----7-----6-----|

2:42                                                                                                 |3:14
d|---------------------------------------------------------------------------------------------------|-----|
A|---------------------------------------------------------------------------------------------------|-----|
F|-9--9-9-9-9-9--9-9-9-9---------------------------------7--7-7-7-7-7--7-7-7-7-----------------------|--9--|
C|-9--9-9-9-9-9--9-9-9-9-10--10-10-10-10-10--10-10-10-10-7--7-7-7-7-7--7-7-7-7-9--9-9-9-9-9--9-9-9-9-|--9--|
G|-7--7-7-7-7-7--7-7-7-7-10--10-10-10-10-10--10-10-10-10-5--5-5-5-5-5--5-5-5-5-9--9-9-9-9-9--9-9-9-9-|--7--|
D|-----------------------8---8--8--8--8--8---8--8--8--8------------------------7--7-7-7-7-7--7-7-7-7-|-----|

3:30
d|-------------------------------------------------------------|
A|-------------------------------------------------------------|
F|-9-----9--7--------7-----------9-----9--7--------7-----------|
C|-9-----9--7--9-----7-----9-----9-----9--7--9-----7-----9-----|
G|-7-----7--5--9-----5-----9-----7-----7--5--9-----5-----9-----|
D|-------------7-----------7-----------------7-----------7-----|

3:46
d|-----------------------------------------------------------------------------------------------------|
A|-----------------------------------------------------------------------------------------------------|
F|-----------------------------------------------------------------------------------------------------|
C|-----------------------------------------------------------------------------------------------------|
G|-7--7-10-7-10-7--7-10-7-10---------------------------5--5-8-5-8-5--5-8-5-8---------------------------|
D|---------------------------8--8-11-8-11-8--8-11-8-11-----------------------7--7-10-7-10-7--7-10-7-10-|
      * *  * *     * *  * *     * *  * *     * *  * *     * * * *    * * * *    * *  * *     * *  * *

4:01
d|-----------------------------------------------------------------------------------------------------|
A|-----------------------------------------------------------------------------------------------------|
F|-----------------------------------------------------------------------------------------------------|
C|-7--7-10-7-10-7--7-10-7-10---------------------------5--5-8-5-8-5--5-8-5-8---------------------------|
G|---------------------------8--8-11-8-11-8--8-11-8-11-----------------------7--7-10-7-10-7--7-10-7-10-|
D|-----------------------------------------------------------------------------------------------------|
      * *  * *     * *  * *     * *  * *     * *  * *     * * * *    * * * *    * *  * *     * *  * *

4:17
d|---------------------------------------------------------------------------|
A|---------------------------------------------------------------------------|
F|---------------------------------------------------------------------------|
C|---------------------------9-9-9-9-9-9-9-9-9-9-9-9-9-9-9-9-9-9-9-9-9-9-9-9-|
G|-7--7-10-7-10-7--7-10-7-10-------------------------------------------------|
D|---------------------------------------------------------------------------|
      * *  * *     * *  * *

d|---------------------------------------------------------------------------|
A|---------------------------------------------------------------------------|
F|--9----9--9--9-------------------------------------------------------------|
C|--9----9--9--9-------------------------------------------------------------|
G|--7----7--7--7-------------------------------------------------------------|
D|---------------------------------------------------------------------------|

4:43
d|---------------------------------------------------------------------------------|
A|---------------------------------------------------------------------------------|
F|---------------------------------------------------------------------------------|
C|---------------------------------------------------------------9-9-9-9-7-7-7-7-9-|
G|-10-10-10-10-10-10-10-10-10-10-10-10-10-10-9-9-9-9-9-9-9-9-9-9-----------------7-|
D|---------------------------------------------------------------------------------|

************************************

| /   slide up
| \   slide down
| h   hammer-on
| p   pull-off
| ~   vibrato
| +   harmonic
| x   Mute note
| b   Bend
| pb  Pre-bend
| br  Bend release
| pbr Pre-bend release
| brb Bend release bend
| *   Palm mute
| t   Tap
| ps  Pick scrape

************************************
Добавлено: 11.04.2016
Вам также может быть интересно:
Другие материалы по этой песне:
  • Аккорды и текст

Страница создана 11.04.2016
http://primanota.ru/starkill/new-infernal-rebirth-chords.htm
Привет, Гость.
Предлагаем пройти революционный курс по гитаре.
Подарок от PrimaNota.Ru, забирай!