PrimaNota.ru - самый крупный в мире бесплатный архив песенных текстов, аккордов, табулатур и нот


Starkill - Fires Of Life - таба, видео

Регистрация Запомнить меня
Войти через:  Facebook Google Twitter Vk Yandex Mail.ru

Starkill - Fires Of Life - таба, видео

Печатать
Просмотров: 90
-------------------------------------------------------------------------------
                             Fires Of Life (solo) - Starkill
-------------------------------------------------------------------------------
Tabbed by: Obsimyx                                           Tuning: D Standard

2:01
d|-23-23-19-22-22-18-21-21-17-18-20-16-19-16-18-15-16-18-15-17-14-15-17-13-15-17-19-15-16-18-20-16-14-|
A|----------------------------------------------------------------------------------------------------|
F|----------------------------------------------------------------------------------------------------|
C|----------------------------------------------------------------------------------------------------|
G|----------------------------------------------------------------------------------------------------|
D|----------------------------------------------------------------------------------------------------|

2:04
d|----------------------------------------17-20-18----17-20-18----20b(21)~----|
A|---18wd(18)wd(18)------18wd(18)wd(18)------------19----------19-------------|
F|15---------------15-17---------------15-------------------------------------|
C|17---------------17-18---------------16-------------------------------------|
G|----------------------------------------------------------------------------|
D|----------------------------------------------------------------------------|
     
2:06
d|-------------6---13-12-------17-16-15-14-------------14-13-12-11-----------------------------------|
A|---------5-----8-------13-12-------------18-17-16-15-------------15-14-13-12-----------------------|
F|-----7-9---6-----------------------------------------------------------------16-15-14-13-9-10-11-12|
C|7-10-----------------------------------------------------------------------------------------------|
G|---------------------------------------------------------------------------------------------------|
D|---------------------------------------------------------------------------------------------------|
  * *  * *   *

2:10
d|-----------9-10-11-12-13-14-15-16-13---14---17--(17)--(17)--(17)--(17)--18---14---19--(19)--|
A|9-10-11-12------------------------15---16---19wd(19)wd(19)wd(19)wd(19)--20---16---21wd(21)wd|
F|----------------------------------16---17---20--(20)--(20)--(20)--(20)--21---17---22--(22)--|
C|--------------------------------------------------------------------------------------------|
G|--------------------------------------------------------------------------------------------|
D|--------------------------------------------------------------------------------------------|

2:15
d|(19)--(19)--(19)--13-12----------12-13-12----------12-13-12----------14-13----------13-14-13----------|
A|(21)wd(21)wd(21)--------13-12-13----------13-12-13----------13-12-13-------14-13-14----------14-13-14-|
F|(22)--(22)--(22)--------------------------------------------------------------------------------------|
C|------------------------------------------------------------------------------------------------------|
G|------------------------------------------------------------------------------------------------------|
D|------------------------------------------------------------------------------------------------------|

2:18
d|13-14-13----18-20-18-17wd(17)wd(17)wd(17)wd(17)wd---------------------|
A|---------14-----------------------------------------------------------|
F|----------------------------------------------------------------------|
C|----------------------------------------------------------------------|
G|----------------------------------------------------------------------|
D|----------------------------------------------------------------------|
                         continue decreasing pitch|---------------------|

************************************

| /   slide up
| \   slide down
| h   hammer-on
| p   pull-off
| ~   vibrato
| +   harmonic
| x   Mute note
| b   Bend
| pb  Pre-bend
| br  Bend release
| pbr Pre-bend release
| brb Bend release bend
| wd  Whammy down  

************************************
Добавлено: 11.04.2016
Другие материалы по этой песне:

Страница создана 25.10.2013
http://primanota.ru/starkill/fires-of-life-chords.htm
Привет, Гость.
Предлагаем пройти революционный курс по гитаре.
Подарок от PrimaNota.Ru, забирай!