PrimaNota.ru - самый крупный в мире бесплатный архив песенных текстов, аккордов, табулатур и нот


Starkill - Before Hope Fades - таба, видео

Регистрация Запомнить меня
Войти через:  Facebook Google Twitter Vk Yandex Mail.ru

Starkill - Before Hope Fades - таба, видео

Печатать
Просмотров: 101
-------------------------------------------------------------------------------
                             Before Hope Fades - Starkill
-------------------------------------------------------------------------------
Tabbed by: Obsimyx                                           Tuning: D Standard

0:29
d|-----------------------------------------------------------------|
A|-----------------------------------------------------------------|
F|-7-7-7-7-7-7-7-7-5-5-5-5-5-5-5-5-2-2-2-2-2-2-2-2-2-2-2-2-2-2-2-2-|
C|-5-5-5-5-5-5-5-5-3-3-3-3-3-3-3-3-0-0-0-0-0-0-0-0-0-0-0-0-0-0-0-0-|
G|-5-5-5-5-5-5-5-5-3-3-3-3-3-3-3-3-0-0-0-0-0-0-0-0-0-0-0-0-0-0-0-0-|
D|-5-5-5-5-5-5-5-5-3-3-3-3-3-3-3-3-0-0-0-0-0-0-0-0-0-0-0-0-0-0-0-0-|

1:11
d|-------------------------------------------------------------------|
A|-------------------------------------------------------------------|
F|-------------------------------------------------------------------|
C|------------------------------------5-----------------------/5-3---|
G|-\ps\-\--2--2-2-2--2-2--2--2-2-/5-3---2--2-2-2--2-2--2--2-2------3-|
D|-\ps\-\--0--0-0-0--0-0--0--0-0--------0--0-0-0--0-0--0--0-0--------|
              * *            * *           * *            * *

1:21
d|-----------------------------------------------------------------|
A|-----------------------------------------------------------------|
F|-----------------------------------------------------------------|
C|-----------------------------------------------------------------|
G|-5-5-5-5-5-5-5-5-3-3-3-3-3-3-3-3-0-0-0-0-0-0-0-0-0-0-0-0-0-0-0-0-|
D|-5-5-5-5-5-5-5-5-3-3-3-3-3-3-3-3-0-0-0-0-0-0-0-0-0-0-0-0-0-0-0-0-|
     * * * * * * * * * * * * * * * * * * * * * * * * * * * * * * *

d|-----------------------------------------------------------------|
A|-----------------------------------------------------------------|
F|-7-7-7-7-7-7-7-7-5-5-5-5-5-5-5-5-2-2-2-2-2-2-2-2-2-2-2-2-2-2-2-2-|
C|-5-5-5-5-5-5-5-5-3-3-3-3-3-3-3-3-0-0-0-0-0-0-0-0-0-0-0-0-0-0-0-0-|
G|-5-5-5-5-5-5-5-5-3-3-3-3-3-3-3-3-0-0-0-0-0-0-0-0-0-0-0-0-0-0-0-0-|
D|-5-5-5-5-5-5-5-5-3-3-3-3-3-3-3-3-0-0-0-0-0-0-0-0-0-0-0-0-0-0-0-0-|

1:43
d|-----------------------------------------------------------|
A|-----------------------------------------------------------|
F|-----------------------------------------------------------|
C|----------------------------5-----------------------/5-3---|
G|-2--2-2-2--2-2--2--2-2-/5-3---2--2-2-2--2-2--2--2-2------3-|
D|-0--0-0-0--0-0--0--0-0--------0--0-0-0--0-0--0--0-0--------|
      * *            *             * *            *        =

1:50
Lead
d|-----------------------------------------------------------------------------------------|
A|-----------------------------------------------------------------------------------------|
F|-7-7-7-7-7-7-7-7-10-10-10-10-15-15-15-15-14-14-14-14-14-14-14-14-14-14-14-14-14-14-14-14-|
C|-----------------------------------------------------------------------------------------|
G|-5-5-5-5-5-5-5-5-8--8--8--8--13-13-13-13-12-12-12-12-12-12-12-12-12-12-12-12-12-12-12-12-|
D|-----------------------------------------------------------------------------------------|

Rhythm
d|-----------------------------------------------------------------|
A|-----------------------------------------------------------------|
F|-----------------------------------------------------------------|
C|-----------------------------------------------------------------|
G|-5-5-5-5-5-5-5-5-3-3-3-3-3-3-3-3-0-0-0-0-0-0-0-0-0-0-0-0-0-0-0-0-|
D|-5-5-5-5-5-5-5-5-3-3-3-3-3-3-3-3-0-0-0-0-0-0-0-0-0-0-0-0-0-0-0-0-|
     * * * * * * * * * * * * * * * * * * * * * * * * * * * * * * *

1:58
d|-----------------------------------------------------------|
A|-----------------------------------------------------------|
F|---------------------------------------------------------3-|
C|----------------------------5-----------------------/5-3---|
G|-2--2-2-2--2-2--2--2-2-/5-3---2--2-2-2--2-2--2--2-2--------|
D|-0--0-0-0--0-0--0--0-0--------0--0-0-0--0-0--0--0-0--------|
      * *            *             * *            *        =

d|-----------------------------------------------------------------|
A|-----------------------------------------------------------------|
F|-----------------------------------------------------------------|
C|-----------------------------------------------------------------|
G|-5-5-5-5-5-5-5-5-3-3-3-3-3-3-3-3-0-0-0-0-0-0-0-0-0-0-0-0-0-0-0-0-|
D|-5-5-5-5-5-5-5-5-3-3-3-3-3-3-3-3-0-0-0-0-0-0-0-0-0-0-0-0-0-0-0-0-|
     * * * * * * * * * * * * * * * * * * * * * * * * * * * * * * *

d|-----------------------------------------------------------------|
A|-----------------------------------------------------------------|
F|-7-7-7-7-7-7-7-7-5-5-5-5-5-5-5-5-2-2-2-2-2-2-2-2-2-2-2-2-2-2-2-2-|
C|-5-5-5-5-5-5-5-5-3-3-3-3-3-3-3-3-0-0-0-0-0-0-0-0-0-0-0-0-0-0-0-0-|
G|-5-5-5-5-5-5-5-5-3-3-3-3-3-3-3-3-0-0-0-0-0-0-0-0-0-0-0-0-0-0-0-0-|
D|-5-5-5-5-5-5-5-5-3-3-3-3-3-3-3-3-0-0-0-0-0-0-0-0-0-0-0-0-0-0-0-0-|

2:42
d|-----------------------------------------------------------------------------------|
A|-----------------------------------------------------------------------------------|
F|-----------------------------------------------------------------------------------|
C|-----9---9/12-9---9/12-9---9---9/12-9-7-9-----9---9/12-9---9/12-9---9---9/12-9-7-9-|
G|-7-7---7--------7--------7---7------------5-5---5--------5--------5---5------------|
D|-5-5---5--------5--------5---5------------3-3---3--------3--------3---3------------|
   * *   *        *        *   *            * *   *        *        *   *

d|-----------------------------------------------------------------------|
A|-----------------------------------------------------------------------|
F|-----------------------------------------------------------------------|
C|----5---5/7-5---5/7-5---5---5/7-5-3-5-----5---5/7-5---5---3---/5-3-----|
G|2-2---2-------2-------2---2-----------2-2---2-------2---2---2------3---|
D|0-0---0-------0-------0---0-----------0-0---0-------0---0---0--------5-|
  * *   *       *       *   *           * *   *       *   *   *

2:57
Lead
d|-----------------------------------------------------------------------------|
A|-----------------------------------------------------------------------------|
F|-----------------------------------------------------------------------------|
C|-----------------------------------------------------------------------------|
G|-----------------------------------------------------------------------------|
D|-0-0-2-0-2/4-2-0-2/4-2-0-2-0-2/4-2-0-2-0-0-2-0-2/4-2-0-2/4-2-0-2-0-2/4-2-0-2-|
   * *   *       *       *   *           * *   *       *       *   *    

Rhythm
d|-----------------------------------------------------------------------------------|
A|-----------------------------------------------------------------------------------|
F|-----------------------------------------------------------------------------------|
C|-----9---9/12-9---9/12-9---9---9/12-9-7-9-----9---9/12-9---9/12-9---9---9/12-9-7-9-|
G|-7-7---7--------7--------7---7------------5-5---5--------5--------5---5------------|
D|-5-5---5--------5--------5---5------------3-3---3--------3--------3---3------------|
   * *   *        *        *   *            * *   *        *        *   *

3:04
d|-----------------------------------------------------------------------|
A|-----------------------------------------------------------------------|
F|-----------------------------------------------------------------------|
C|----5---5/7-5---5/7-5---5---5/7-5-3-5-----5---5/7-5---5---3---/5-3-----|
G|2-2---2-------2-------2---2-----------2-2---2-------2---2---2------3---|
D|0-0---0-------0-------0---0-----------0-0---0-------0---0---0--------5-|
  * *   *       *       *   *           * *   *       *   *   *

3:11
Solo Rhythm
d|-----------------------------------------------------------------|
A|-----------------------------------------------------------------|
F|-7-7-7-7-7-7-7-7-5-5-5-5-5-5-5-5-2-2-2-2-2-2-2-2-2-2-2-2-2-2-2-2-|
C|-5-5-5-5-5-5-5-5-3-3-3-3-3-3-3-3-0-0-0-0-0-0-0-0-0-0-0-0-0-0-0-0-|
G|-5-5-5-5-5-5-5-5-3-3-3-3-3-3-3-3-0-0-0-0-0-0-0-0-0-0-0-0-0-0-0-0-|
D|-5-5-5-5-5-5-5-5-3-3-3-3-3-3-3-3-0-0-0-0-0-0-0-0-0-0-0-0-0-0-0-0-|

Solo Lead
d|-----------------------------17----19----20----20-19~-----------------------------------------------------|
A|--------/16-13~-12----12~-------17----17----17--------20-20-19-20~-19-20-19-18-17-------------------------|
F|-----12------------14-----14------------------------------------------------------19-18-17-16-------------|
C|-/14------------------------------------------------------------------------------------------19-18-17-16-|
G|----------------------------------------------------------------------------------------------------------|
D|----------------------------------------------------------------------------------------------------------|

d|-------------------------------------------------------------------------------------------------|
A|-------------------------------------------------------------12-12-12-12-13-13-13-13-13-13-13-13-|
F|-------------------------------------12-12-12-12-14-14-14-14-------------------------------------|
C|-------------14-14-14-14-16-16-16-16-------------------------------------------------------------|
G|-15-15-17-17-------------------------------------------------------------------------------------|
D|-------------------------------------------------------------------------------------------------|

d|-----------------------------------------------------------15-15~--20-20~-/24-19~--17-19~--|
A|12~-12-8-12~-17br-17--17-15-13----------------13~--17-17~----------------------------------|
F|-------------------------------16-14-12-14-16----------------------------------------------|
C|-------------------------------------------------------------------------------------------|
G|-------------------------------------------------------------------------------------------|
D|-------------------------------------------------------------------------------------------|

d|-17-19-20-19-17-------------------------------------------------------------------------------------|
A|----------------20-19-17-20-19-17-------------------------------------------------------------------|
F|----------------------------------19-18-17-16-19-18-17-16----------------------16-17-18-19-18-17-16-|
C|----------------------------------------------------------19-18-17-16-17-18-19----------------------|
G|----------------------------------------------------------------------------------------------------|
D|----------------------------------------------------------------------------------------------------|

d|---------------------------------------------------------------------------------|
A|---------------------------------------------------------------------------------|
F|---------------------16-17-21-20-19-18-------------17-16-------17-16-15-14-------|
C|19-18-17-16-17-18-19-------------------19-18-17-16-------19-18-------------------|
G|---------------------------------------------------------------------------17-16-|
D|---------------------------------------------------------------------------------|

d|-------------------------------------------------------------------------------------13-15-16-24~--\-|
A|-------------------------------------------------------------------------13-15-16-17-----------------|
F|-------------------------------------12-14-15-16-------------12-14-15-16-----------------------------|
C|-------------------------12-14-15-16-------------12-14-15-16-----------------------------------------|
G|-------------12-14-15-16-----------------------------------------------------------------------------|
D|-12-14-15-16-----------------------------------------------------------------------------------------|
   *  *  *  *  *  *  *  *  *  *  *  *              *  *  *  *

3:41
d|---------------------------------------------------------------------------|
A|---------------------------------------------------------------------------|
F|---------------------------------------------------------------------------|
C|-0-------------------------------------------------------------------------|
G|-0-------------------------------------------------------------------------|
D|-0-------------------------------------------------------------------------|

4:10
d|-----------------------------------------------------------------|
A|-----------------------------------------------------------------|
F|-7-7-7-7-7-7-7-7-5-5-5-5-5-5-5-5-2-2-2-2-2-2-2-2-2-2-2-2-2-2-2-2-|
C|-5-5-5-5-5-5-5-5-3-3-3-3-3-3-3-3-0-0-0-0-0-0-0-0-0-0-0-0-0-0-0-0-|
G|-5-5-5-5-5-5-5-5-3-3-3-3-3-3-3-3-0-0-0-0-0-0-0-0-0-0-0-0-0-0-0-0-|
D|-5-5-5-5-5-5-5-5-3-3-3-3-3-3-3-3-0-0-0-0-0-0-0-0-0-0-0-0-0-0-0-0-|

4:40
d|---------------------------------------------------------------------------|
A|---------------------------------------------------------------------------|
F|---------------------------------------------------------------------------|
C|-0-------------------------------------------------------------------------|
G|-0-------------------------------------------------------------------------|
D|-0-------------------------------------------------------------------------|

************************************

| /   slide up
| \   slide down
| h   hammer-on
| p   pull-off
| ~   vibrato
| +   harmonic
| x   Mute note
| b   Bend
| pb  Pre-bend
| br  Bend release
| pbr Pre-bend release
| brb Bend release bend
| *   Palm mute
| ps  Pick scrape 
| =   Artificial harmonic

************************************
Добавлено: 11.04.2016
Другие материалы по этой песне:
  • Аккорды и текст

Страница создана 11.04.2016
http://primanota.ru/starkill/before-hope-fades-chords.htm
Привет, Гость.
Предлагаем пройти революционный курс по гитаре.
Подарок от PrimaNota.Ru, забирай!