PrimaNota.ru - самый крупный в мире бесплатный архив песенных текстов, аккордов, табулатур и нот


Starfucker - Reptilians - таба, бас-таба, видео

Регистрация Запомнить меня
Войти через:  Facebook Google Twitter Vk Yandex Mail.ru

Starfucker - Reptilians - таба, бас-таба, видео

Печатать
Просмотров: 147
STARFUCKER - REPTILIANS

I did this by ear but it sounds perfect to me since there wasn't any other tab
of this amazing song.But i'm not 100% sure about the solo.But anyway enjoy the tab.


Guitar 1 intro:

E|--------------------------------------------|
B|--------------------------------------------|
G|--8--8--8--8-----------5--5--5--5-----------|
D|--8--8--8--8--5--5--5--5--5--5--5--8--8--8--|
A|--6--6--6--6--5--5--5--3--3--3--3--8--8--8--|
E|--------------3--3--3--------------6--6--6--|

Guitar 2 intro:


E|--------------------------|
B|--6/8\6/15\8--6/8\6/11\8--|
G|--------------------------|
D|--------------------------|
A|--------------------------|
E|--------------------------|

Verse Guitar 1:

E|--------------------------------------------|
B|--------------------------------------------|
G|--8--8--8--8-----------5--5--5--5-----------|
D|--8--8--8--8--5--5--5--5--5--5--5--8--8--8--|
A|--6--6--6--6--5--5--5--3--3--3--3--8--8--8--|
E|--------------3--3--3--------------6--6--6--|

Verse guitar 2:

E|-----------------10--10--10--6--6--|
B|--6--6--6--8--8--------------------|
G|-----------------------------------|
D|-----------------------------------|
A|-----------------------------------|
E|-----------------------------------|

Bridge :

E|--------4--------4--------------5--------5--------------6--------6---------------8---------8---------|
B|-----4--------4--------4-----4--------4--------4-----6--------6--------6------9---------9---------9--|
G|--5--------5--------5-----5--------5--------5-----7--------7--------7-----10--------10--------10-----|
D|-----------------------------------------------------------------------------------------------------|
A|-----------------------------------------------------------------------------------------------------|
E|-----------------------------------------------------------------------------------------------------|

E|--------6--------6---------------8---------8---------------6--------6--------------6--------6--------|
B|-----6--------6--------6------9---------9---------9-----6--------6--------6-----9--------9--------9--|
G|--7--------7--------7-----10--------10--------10-----7--------7--------7-----7--------7--------7-----|
D|-----------------------------------------------------------------------------------------------------|
A|-----------------------------------------------------------------------------------------------------|
E|-----------------------------------------------------------------------------------------------------|

Verse 2:

E|------------------------------------------------------------------------------------------------|
B|------------------------------------------------------------------------------------------------|
G|------------------------------------------------------------------------------------------------|
D|----------------8--8--8------------------------------------------8--8--8------------------------|
A|--8--10--8--10-----------8--10--8--10--------------8--10--8--10-----------8--10--8--10----------|
E|---------------------------------------10--10--10---------------------------------------10--10--|

Solo:

E|--1--3--6--3--3--11--10--8--6--4--4--3--6--3--1--11--10--8--6--4--4--3--6--3--1--1--1/3--6--3--1--|
B|--------------------------------------------------------------------------------------------------|
G|--------------------------------------------------------------------------------------------------|
D|--------------------------------------------------------------------------------------------------|
A|--------------------------------------------------------------------------------------------------|
E|--------------------------------------------------------------------------------------------------|

E|-----------------------------------------------------------------------------------|
B|--6--8--6--4--------6--3--4--6--4--6--9--8--6--4--3--1-----9--8--6--4--3-----------|
G|--------------------------------------------------------3--------------------3--3--|
D|-----------------------------------------------------------------------------------|
A|-----------------------------------------------------------------------------------|
E|-----------------------------------------------------------------------------------|


Tabbed by maxox10
Добавлено: 22.05.2016
Другие материалы по этой песне:
  • Аккорды и текст

Страница создана 03.06.2012
http://primanota.ru/starfucker/reptilians-chords.htm
Привет, Гость.
Предлагаем пройти революционный курс по гитаре.
Подарок от PrimaNota.Ru, забирай!