PrimaNota.ru - самый крупный в мире бесплатный архив песенных текстов, аккордов, табулатур и нот


Starfucker - Rawnald Gregory Erikson The Second - таба, видео

Регистрация Запомнить меня
Войти через:  Facebook Google Twitter Vk Yandex Mail.ru

Starfucker - Rawnald Gregory Erikson The Second - таба, видео

Печатать
Просмотров: 62
Artist: Starfucker
      Title: Rawnald Gregory Erikson the Second
           Album: Starf**ker


The actual guitar playing is pretty simple. The "x" is a mute, which is what it sounds 
like to me, or it can be replaced with another 12 (so you get 12-12-14 followed by the 12 
on the D string), or you can just omit the "x" and play it straight-forward.
        Sorry if the Guitar 1, Guitar 2 looks confusing, I wanted to juxtapose both tabs to 
show that both guitars are plucked in sync.
It sounds good if you layer these on a loop pedal.

GUITAR 1:
E|-------------------------------------------------------------------------------------------|
B|-------------------------------------------------------------------------------------------|
G|-------------------------------------------------------------------------------------------|
D|------------------------------12------------------------------12---------------------------|
A|---14--12--14--12--14--12-x14------14--12--14--12--14--12-x14-----14--12--14--12-----------|
E|-------------------------------------------------------------------------------------------|

Guitar 2:
E|-------------------------------------------------------------------------------------------|
B|-------------------------------------------------------------------------------------------|
G|-------------------------------------------------------------------------------------------|
D|-------------------------------------------------------------------------------------------|
A|---10--10--10--10--10--10--10--10--10--10--10--10--10--10--10--10--9---9---9---9-----------|
E|-------------------------------------------------------------------------------------------|


GUITAR 1:
E|-------------------------------------------------------------------------------------------|
B|-------------------------------------------------------------------------------------------|
G|-------------------------------------------------------------------------------------------|
D|--------------12------------------------------12------------------------------12-----------|
A|---14--12-x14------14--12--14--12--14--12-x14------14--12--14--12--14--12-x14--------------|
E|-------------------------------------------------------------------------------------------|

Guitar 2:
E|-------------------------------------------------------------------------------------------|
B|-------------------------------------------------------------------------------------------|
G|-------------------------------------------------------------------------------------------|
D|-------------------------------------------------------------------------------------------|
A|---9---9---9---9---10--10--10--10--9---9---9---9/--0---0---0---0/--7---7---7---7-----------|
E|-------------------------------------------------------------------------------------------|


The bass part is transcribed for guitar. I think you get the best tone playing on the 
low E string, but you can incorporate the A string and get the same notes if you want to 
lessen hand movement.

Bass:
E|-------------------------------------------------------------------------------------------|
B|-------------------------------------------------------------------------------------------|
G|-------------------------------------------------------------------------------------------|
D|-------------------------------------------------------------------------------------------|
A|-------------------------------------------------------------------------------------------|
E|---3-----3-3-------3-----3-3-------3-----3-3-------3-----3-3-------7-----7-7---------------|

E|-------------------------------------------------------------------------------------------|
B|-------------------------------------------------------------------------------------------|
G|-------------------------------------------------------------------------------------------|
D|-------------------------------------------------------------------------------------------|
A|-------------------------------------------------------------------------------------------|
E|---7-----7-7-------0-----0-0-------10----1010------5-----5-5-------8-----8-8---------------|

Guitar 2: First part into the bridge 1:08 (rake through the x's and upstroke the pairs)
E|---7------7-7------7------7-7------7------7-7------7------7-7------7------7-7--------------|
B|---8------8-8------8------8-8------8------8-8------8------8-8------10-----1010-------------|
G|---x---------------x---------------x---------------x---------------x-----------------------|
D|---x---------------x---------------x---------------x---------------x-----------------------|
A|-------------------------------------------------------------------------------------------|
E|-------------------------------------------------------------------------------------------|

E|---7------7-7------7------7-7------10-----1010-----7------7-7------10-----1010-------------|
B|---10-----1010-----8------8-8------12-----1212-----10-----1010-----12-----1212-------------|
G|---x---------------x---------------x---------------x---------------x-----------------------|
D|---x---------------x---------------x---------------x---------------x-----------------------|
A|-------------------------------------------------------------------------------------------|
E|-------------------------------------------------------------------------------------------|x2


Lyrics:

All my life
there you go
Oh please stay
just this once
anyway

All my life
there they go
Oh please stay
for the night
anyway

All my life
there you go
Oh please stay
just this once
anyway

All my life
there they go
Oh please stay
for the night
anyway
Добавлено: 02.10.2013
Другие материалы по этой песне:
  • Аккорды и текст

Страница создана 02.10.2013
http://primanota.ru/starfucker/rawnald-gregory-erikson-the-second-chords.htm
Привет, Гость.
Предлагаем пройти революционный курс по гитаре.
Подарок от PrimaNota.Ru, забирай!