PrimaNota.ru - самый крупный в мире бесплатный архив песенных текстов, аккордов, табулатур и нот


Starfucker - Malmo - бас-таба, видео

Регистрация Запомнить меня
Войти через:  Facebook Google Twitter Vk Yandex Mail.ru

Starfucker - Malmo - бас-таба, видео

Печатать
Просмотров: 104
(/) Slide Up  (\) Slide Down  (h) Hammer On  (p) Pull Off  (b) Bend (r) Release (v) Vibrato
Intro/Interlude:



G|------------------------------------------------------------------------|
D|------------------------------------------------------------------------|
A|--5-5-5-5-5-5-5-5--3-3-3-3-3-3-3-3-------------------3-3-3-3-3-3-3-3----|
E|------------------------------------5-5-5-5-5-5-5-5---------------------|


Main Riff

G|--------7--5--------------0--2-----------------------------5-----6--|
D|--------------7--------3-----------------7--5-----------------------|
A|--5-5-----------0-0----------------------------7--------3-----4-----|
E|--------------------------------5-5----------------3-3--------------|
Добавлено: 02.09.2013
Другие материалы по этой песне:
  • Аккорды и текст

Страница создана 02.09.2013
http://primanota.ru/starfucker/malmo-chords.htm
Привет, Гость.
Предлагаем пройти революционный курс по гитаре.
Подарок от PrimaNota.Ru, забирай!