PrimaNota.ru - самый крупный в мире бесплатный архив песенных текстов, аккордов, табулатур и нот


Starfucker - Jupiter - бас-таба, видео

Регистрация Запомнить меня
Войти через:  Facebook Google Twitter Vk Yandex Mail.ru

Starfucker - Jupiter - бас-таба, видео

Печатать
Просмотров: 44
-------------------------------------------------------------------------------
                             Jupiter - STRFKR
-------------------------------------------------------------------------------

Tuning:standard 

G|---------------7---------------|
D|-------4---7-------7---4-------|
A|---5---------------------------|  x4   the fourth time end on the 
E|-------------------------------|       high A

G|---------------7---------------|
D|-----------7-------7-----------|
A|---5---8---------------8-------|  x4
E|-------------------------------|

^^^^^^^^^^^^^^^^play all of that twice^^^^^^^^^^^^^^^

G|----------------9-------------------------9------------|
D|------------9-------9-----------------9-------9--------|
A|---7---10---------------10---7---10--------------------|
E|-------------------------------------------------------|

G|-----------------12-----------------|
D|--------9---12--------12---9--------|
A|---10-------------------------------|  x2
E|------------------------------------|

Please note that there are many ways you can play this, it's best to find the way 
that you feel most comfortable playing. enjoy!

| /  slide up
| \  slide down
| h  hammer-on
| p  pull-off
| ~  vibrato
| +  harmonic
| x  Mute note
===============================================================================
Добавлено: 22.05.2016
Другие материалы по этой песне:
  • Аккорды и текст

Страница создана 22.05.2016
http://primanota.ru/starfucker/jupiter-chords.htm
Привет, Гость.
Предлагаем пройти революционный курс по гитаре.
Подарок от PrimaNota.Ru, забирай!