PrimaNota.ru - самый крупный в мире бесплатный архив песенных текстов, аккордов, табулатур и нот


Starfucker - Isabella Of Castile - таба, видео

Регистрация Запомнить меня
Войти через:  Facebook Google Twitter Vk Yandex Mail.ru

Starfucker - Isabella Of Castile - таба, видео

Печатать
Просмотров: 103
** TIMING IS NOT APPROXIMATE **

Main Riff:
E|-----------------------------------------------------------------|
B|-----------------------------------------------------------------|
G|--8--8--6--8--6--8--8--6--8--6--8--8--6--8--6--11--11--10--8--6--|
D|-----------------------------------------------------------------|
A|-----------------------------------------------------------------|
E|-----------------------------------------------------------------|

Chorus Riff:

E|------------------|
B|--14--16----------|
G|----------13--15\-| x2
D|------------------|
A|------------------|
E|------------------|

E|--------------------------13--14--13----------|
B|--14--16----------14--16--------------16--14--|
G|----------13--15------------------------------|
D|----------------------------------------------|
A|----------------------------------------------|
E|----------------------------------------------|
Добавлено: 26.11.2013
Другие материалы по этой песне:
  • Аккорды и текст

Страница создана 26.11.2013
http://primanota.ru/starfucker/isabella-of-castile-chords.htm
Привет, Гость.
Предлагаем пройти революционный курс по гитаре.
Подарок от PrimaNota.Ru, забирай!