PrimaNota.ru - самый крупный в мире бесплатный архив песенных текстов, аккордов, табулатур и нот


Starfucker - Fortunes Fool - таба, видео

Регистрация Запомнить меня
Войти через:  Facebook Google Twitter Vk Yandex Mail.ru

Starfucker - Fortunes Fool - таба, видео

Печатать
Просмотров: 56
-------------------------------------------------------------------------------
                             Fortune's Fool - Starfucker
-------------------------------------------------------------------------------

Tuning: Standard

e|----------------------------------|
B|----------------------------------|
G|-4--4--4--5--4--2--0--------------|
D|----------------------3--3---3--0-|     Repeat 4x
A|----------------------------------|
E|----------------------------------|

e|----------------------------------|
B|----------------------------------|
G|-4--4--4--5--7--5--2--2-----------|
D|-------------------------4---5----|     Repeat 3x
A|----------------------------------|
E|----------------------------------|

e|----------------------------------|
B|----------------------------------|
G|-4--4--4--5--7--5--2--4-----------|
D|-------------------------4---5----|    
A|----------------------------------|
E|----------------------------------|

                      F   D   G
I see the look on the faces
                           F   D   G
They like the way that you smile
                           F   D   G
Why don't you come out and say it?
                   F   D   G
I'd walk a miracle mile
 
                   F   D   G
I'd walk a miracle mile
                   F   D   G
I'd walk a miracle mile
                   F   D   G
I'd walk a miracle mile
                   F   D   G
I'd walk a miracle mile


Note: This was done pretty quickly by ear. 
Listen to the song to figure out the correct timings.
There are some slight differences here and there, but this is generally the entire song.

Here's the chords...I like to use barre chords on the F and G instead of the open chords:

F:
e|---1---|
B|---1---|
G|---2---|
D|---3---|
A|---3---|
E|---1---|

D:
e|---2---|
B|---3---|
G|---2---|
D|-------|
A|-------|
E|-------|

G:
e|---3---|
B|---3---|
G|---4---|
D|---5---|
A|---5---|
E|---3---|
Добавлено: 08.08.2015
Другие материалы по этой песне:
  • Аккорды и текст

Страница создана 08.08.2015
http://primanota.ru/starfucker/fortunes-fool-chords.htm
Привет, Гость.
Предлагаем пройти революционный курс по гитаре.
Подарок от PrimaNota.Ru, забирай!