PrimaNota.ru - самый крупный в мире бесплатный архив песенных текстов, аккордов, табулатур и нот


Starflyer 59 - You Don't Miss Me - текст песни, таба, видео

Регистрация Запомнить меня
Войти через:  Facebook Google Twitter Vk Yandex Mail.ru

Starflyer 59 - You Don't Miss Me - текст песни, таба, видео

Печатать
Просмотров: 111
		   You Don't Miss Me
by Starflyer 59
written by Jason Martin
transcribed by Josh Dube

intro
e------------------
B------------------
G-----5-7---9-7-5--
D-5h7-----9--------
A------------------
E------------------

verse
e-------------------------------------------------------------------
B-------------------------------------------------------------------
G-------------------------------------------------------------7--5--
D-7-7-7-7--5-5-5-5--3-3-3-3--7-7-7-7--3-3-3-3-3-3-3-3--2-2-2--7--5--
A-7-7-7-7--5-5-5-5--3-3-3-3--7-7-7-7--3-3-3-3-3-3-3-3--2-2-2--5--3--
E-5-5-5-5--3-3-3-3--1-1-1-1--5-5-5-5--1-1-1-1-1-1-1-1--0-0-0--------

chorus
e---------------------------------------------------------------------
B---------------------------------------------------------------------
G-5-5-5-5-5-5-5-5-----------------------------------------------------
D-5-5-5-5-5-5-5-5--7-7-7-7-7-7-7-7--3-3-3-3-3-3-3-3--5-5-5-5-5-5-5-5--
A-3-3-3-3-3-3-3-3--7-7-7-7-7-7-7-7--3-3-3-3-3-3-3-3--5-5-5-5-5-5-5-5--
E------------------5-5-5-5-5-5-5-5--1-1-1-1-1-1-1-1--3-3-3-3-3-3-3-3--

e-------------------------------------------------------------------------------
------------------------
B-------------------------------------------------------------------------------
------------------------
G-5-5-5-5-5-5-5-5---------------------------------------------------------------
------------------------
D-5-5-5-5-5-5-5-5--7-7-7-7-7-7-7-7--3-3-3-3-3-3-3-3--5-5-5-5-5-5-5-5--3-3-3-3-3-
3-3-3--5-5-5-5-5-5-5-5--
A-3-3-3-3-3-3-3-3--7-7-7-7-7-7-7-7--3-3-3-3-3-3-3-3--5-5-5-5-5-5-5-5--3-3-3-3-3-
3-3-3--5-5-5-5-5-5-5-5--
E------------------5-5-5-5-5-5-5-5--1-1-1-1-1-1-1-1--3-3-3-3-3-3-3-3--1-1-1-1-1-
1-1-1--3-3-3-3-3-3-3-3--

bridge (play thru solos too)
e-------------------------------------------------------------------------
B-------------------------------------------------------------------------
G-------------------------------------------------------------------------
D-7-7-7-7--5-5-5-5--3-3-3-3--5-5-5-5--7-7-7-7--5-5-5-5--3-3-3-3--5-5-5-5--
A-7-7-7-7--5-5-5-5--3-3-3-3--5-5-5-5--7-7-7-7--5-5-5-5--3-3-3-3--5-5-5-5--
E-5-5-5-5--3-3-3-3--1-1-1-1--3-3-3-3--5-5-5-5--3-3-3-3--1-1-1-1--3-3-3-3--

intro
verse
chorus
bridge
verse
chorus
bridge
chorus
intro
bridge

questions/comments - dubej@unomaha.edu
     
Добавлено: 18.09.2013
Другие материалы по этой песне:
  • Аккорды и текст

Страница создана 16.05.2012
http://primanota.ru/starflyer-59/you-dont-miss-me-chords.htm
Привет, Гость.
Предлагаем пройти революционный курс по гитаре.
Подарок от PrimaNota.Ru, забирай!