PrimaNota.ru - самый крупный в мире бесплатный архив песенных текстов, аккордов, табулатур и нот


Starflyer 59 - When You Feel Miserable - текст песни, таба, видео

Регистрация Запомнить меня
Войти через:  Facebook Google Twitter Vk Yandex Mail.ru

Starflyer 59 - When You Feel Miserable - текст песни, таба, видео

Печатать
Просмотров: 134
		   Song: When You Feel Miserable 
Artist: Starflyer 59
by: Jason Martin
tabbed by: The Armadillo

tune it all down a whole step: d-g-c-f-a-d

-----------------------------------------------------------------
-----------------------------------------------------------------
-7-7-7-7-5-5-5-5-3-3-3-3-3-3-3-3-7-7-7-7-5-5-5-5-3-3-3-3-3-3-x---
-7-7-7-7-5-5-5-5-3-3-3-3-3-3-3-3-7-7-7-7-5-5-5-5-3-3-3-3-3-3-x---
-5-5-5-5-3-3-3-3-1-1-1-1-1-1-1-1-5-5-5-5-3-3-3-3-1-1-1-1-1-1-x---
-----------------------------------------------------------------
   time waits for no one    but for you i'd wait for so long     but i...
                                                                        (2x=
)
------------------------------------------------------------  ( -0- )
------------------------------------------------------------  ( -3- )
-----------------7-7-7-7-5-5-5-5-3-3-3-3-3-3-3-3-3-3-3-3-3--  ( -2- )
-3-3-3-3-5-5-5-5-7-7-7-7-5-5-5-5-3-3-3-3-3-3-3-3-3-3-3-3-3--  ( -3- )
-3-3-3-3-5-5-5-5-5-5-5-5-3-3-3-3-1-1-1-1-1-1-1-1-1-1-1-1-1--  ( --- )
-1-1-1-1-3-3-3-3--------------------------------------------  ( --- )
still... times...   of your......here...

-----------------------------------------------------------------   ---
-----------------------------------------------------------------   ---
-----------------7-7-7-7-7-7-7-7-5-5-5-5-5-5-5-5-2-2-2-2-2-2-2-2-   -3-
-2-2-2-2-2-2-2-2-7-7-7-7-7-7-7-7-5-5-5-5-5-5-5-5-2-2-2-2-2-2-2-2-   -3-
-2-2-2-2-2-2-2-2-5-5-5-5-5-5-5-5-3-3-3-3-3-3-3-3-0-0-0-0-0-0-0-0-   -1-
-0-0-0-0-0-0-0-0-------------------------------------------------   ---
   take a walk...highway...      my way...
   take a walk...feel..          miserable.

 rhythm part:
-----------------------------------------------------------------
-----------------------------------------------------------------
-7-7-7-x---------3-3-3-x-------9-9=9B7-7-x---------3-3-3-x---------
-7-7-7-x-3-3-3-x-3-3-3-x-5-5-5-9-9=9B7-7-x-3-3-3-x-3-3-3-x-5-5-5---
-5-5-5-x-3-3-3-x-1-1-1-x-5-5-5-7-7=9B5-5-x-3-3-3-x-1-1-1-x-5-5-5--- ..etc.
---------1-1-1-x---------3-3-3-----------1-1-1-x---------3-3-3---

lead:
-----------------------------------------------------
-13-13updn-10----------------------------------------  ..looks wierd but
--------------12-12updn-----------------10-12-/17-14-   i promise it's
------------------------12-12-/15-15=9B12--------------   right. :)
-----------------------------------------------------
-----------------------------------------------------

     
Добавлено: 16.11.2013
Другие материалы по этой песне:
  • Аккорды и текст

Страница создана 30.04.2012
http://primanota.ru/starflyer-59/when-you-feel-miserable-chords.htm
Привет, Гость.
Предлагаем пройти революционный курс по гитаре.
Подарок от PrimaNota.Ru, забирай!