PrimaNota.ru - самый крупный в мире бесплатный архив песенных текстов, аккордов, табулатур и нот


Starflyer 59 - When No One Calls - таба, видео

Регистрация Запомнить меня
Войти через:  Facebook Google Twitter Vk Yandex Mail.ru

Starflyer 59 - When No One Calls - таба, видео

Печатать
Просмотров: 59
		   Song: When No One Calls 
Artist: Starflyer 59
by: Jason Martin
tabbed by: Jared Momose

tuning: two half steps down  d,g,c,f,a,d

  (airy feel with light dist.)
 |-0-0-0-0-0-0-0-0-0-0-0/0-0-0-0-0-0-0-0-0-0-0-0-0-0-0-0-0-0-0-0--|
t|-0-0-0-0-1-1-1-1-1-1-1/2-0-0-0-0-1-1-1-1-1-1-1-2-2-2-2-1-1-1-1--|
 |-1-1-1-1-1-1-1-1-1-1-1/2-1-1-1-1-1-1-1-1-1-1-1-2-2-2-2-1-1-1-1--|
a|-2-2-2-2-1-1-1-1-1-1-1/2-2-2-2-2-1-1-1-1-1-1-1-2-2-2-2-1-1-1-1--|
 |-2-2-2-2-----------------2-2-2-2--------------------------------|
b|-0-0-0-0-----------------0-0-0-0--------------------------------|

                          (timid heavy dist.)
 |-0-0-0-0-2-2-2-2-2-2-2-|----------------------------------------|
t|-2-2-2-2-2-2-2-2-2-2-2-|----------------------------------------|
 |-2-2-2-2-2-2-2-2-2-2-2-|----------------------------------------|
a|-2-2-2-2-4-4-4-4-4-4-4-|-2-2-2-2-6-6-6-6-6/7-2-2-2-2-6-6-6-6----|
 |---------4-4-4-4-4-4-4-|-2-2-2-2-6-6-6-6-6/7-2-2-2-2-6-6-6-6----|
b|---------2-2-2-2-2-2-2-|-0-0-0-0-4-4-4-4-4/5-0-0-0-0-4-4-4-4----|

                              (light dist.)
 |---------------------------|-0-0-0-0-0-0-0-0-0-0-0-0-0-0-0-0----|
t|---------------------------|-0-0-0-0-1-1-1-1-0-0-0-0-1-1-1-1----|
 |---------------------------|-1-1-1-1-1-1-1-1-1-1-1-1-1-1-1-1----|
a|-7-7-7-7-6-6-6-6-7-7-7--4--|-2-2-2-2-1-1-1-1-2-2-2-2-1-1-1-1----|
 |-7-7-7-7-6-6-6-6-7-7-7--4--|-2-2-2-2---------2-2-2-2------------|
b|-5-5-5-5-4-4-4-4-5-5-5--2--|-0-0-0-0---------0-0-0-0------------|

                 (heavy droning dist.)
 |-0---------|  |----------------------------------|x17 
t|-2---------|  |----------------------------------|(17 time fade out)
 |-2---------|  |----------------------------------|
a|-2-2-2-4-4-|  |-7-7-7-7-7-7-7-7-2-2-2-2-4-4-4-4--|
 |-0-2-2-4-4-|  |-7-7-7-7-7-7-7-7-2-2-2-2-4-4-4-4--|
b|---0-0-2-2-|  |-5-5-5-5-5-5-5-5-0-0-0-0-2-2-2-2--|
  arp..     
Добавлено: 06.11.2013
Другие материалы по этой песне:
  • Аккорды и текст

Страница создана 06.11.2013
http://primanota.ru/starflyer-59/when-no-one-calls-chords.htm
Привет, Гость.
Предлагаем пройти революционный курс по гитаре.
Подарок от PrimaNota.Ru, забирай!