PrimaNota.ru - самый крупный в мире бесплатный архив песенных текстов, аккордов, табулатур и нот


Starflyer 59 - The Translator - текст песни, таба, видео

Регистрация Запомнить меня
Войти через:  Facebook Google Twitter Vk Yandex Mail.ru

Starflyer 59 - The Translator - текст песни, таба, видео

Печатать
Просмотров: 95
		   The Translator
by Starflyer 59
written by Jason Martin

intro:

e----------------
B----------------
G-2-2-2--4-------
D-2-2-2--4--5-5--
A-0-0-0--2--5-5--
E-----------3-3--

verse:

e-----------------------------------------------------------------------------------------------------------------------------------------
G-----------------------------------------------------------------------------------------------------------------------------------------
B-----------------------------------4-4-4-4-4-4-4-4--2-2-2--4-4-4-4-4-4-4------------------------------------4-4-4-4-4-4-4-4-4-4-4-4-4-4--
D-4-4-4-4-4-4-4-4--2-2-2-2-2-2-2-2--4-4-4-4-4-4-4-4--2-2-2--4-4-4-4-4-4-4--4-4-4-4-4-4-4-4--2-2-2-2-2-2-2-2--4-4-4-4-4-4-4-4-4-4-4-4-4-4--
A-4-4-4-4-4-4-4-4--2-2-2-2-2-2-2-2--2-2-2-2-2-2-2-2--0-0-0--2-2-2-2-2-2-2--4-4-4-4-4-4-4-4--2-2-2-2-2-2-2-2--2-2-2-2-2-2-2-2-2-2-2-2-2-2--
E-2-2-2-2-2-2-2-2--0-0-0-0-0-0-0-0-----------------------------------------2-2-2-2-2-2-2-2--0-0-0-0-0-0-0-0-------------------------------

chorus:

e---------------------------------------------------------------------------------------------------------------------------------------
G---------------------------------------------------------------------------------------------------------------------------------------
B-6-6-6-6-6-6-6-6--7-7-7-7-7-7-7-7--6-6-6-6-6-6-6-6--7-7-7-7-7-7-7-7--5-5-5-5-5-5-5-5--7-7-7-7-7-7-7-7--5-5-5-5-5-5-5-5--7-7-7--9--5-5--
D-6-6-6-6-6-6-6-6--7-7-7-7-7-7-7-7--6-6-6-6-6-6-6-6--7-7-7-7-7-7-7-7--5-5-5-5-5-5-5-5--7-7-7-7-7-7-7-7--5-5-5-5-5-5-5-5--7-7-7--9--5-5--
A-4-4-4-4-4-4-4-4--5-5-5-5-5-5-5-5--4-4-4-4-4-4-4-4--5-5-5-5-5-5-5-5--3-3-3-3-3-3-3-3--5-5-5-5-5-5-5-5--3-3-3-3-3-3-3-3--5-5-5--7--3-3--
E---------------------------------------------------------------------------------------------------------------------------------------

bridge:

e---------------------------
G---------------------------
B-4-----2--4-4-------7-7-7--
D-4--4--2--4-4--4-4--7-7-7--
A-2--4--0--2-2--4-4--5-5-5--
E----2----------2-2---------

intro
verse
chorus
bridge
verse
chorus
bridge
intro

problems - dubej@unomaha.edu

     
Добавлено: 03.06.2013
Другие материалы по этой песне:
  • Аккорды и текст

Страница создана 06.07.2012
http://primanota.ru/starflyer-59/the-translator-chords.htm
Привет, Гость.
Предлагаем пройти революционный курс по гитаре.
Подарок от PrimaNota.Ru, забирай!