PrimaNota.ru - самый крупный в мире бесплатный архив песенных текстов, аккордов, табулатур и нот


Starflyer 59 - The Hearttaker - таба, видео

Регистрация Запомнить меня
Войти через:  Facebook Google Twitter Vk Yandex Mail.ru

Starflyer 59 - The Hearttaker - таба, видео

Печатать
Просмотров: 87
Уроки эстрадного вокала в Санкт-Петербурге
		   The Hearttaker
by Starflyer 59
written by Jason Martin

tuned down

intro/verse:

e-------------------------------------------------------------------
B-------------------------------------------------------------------
G-------------------------------------------------------------------
D-5-5-5-5-5-5-5-5-5-5-5-5-5-5-5-5--2-2-2-2-2-2-2-2-2-2-2-2-2-2-2-2--
A-5-5-5-5-5-5-5-5-5-5-5-5-5-5-5-5--2-2-2-2-2-2-2-2-2-2-2-2-2-2-2-2--
E-3-3-3-3-3-3-3-3-3-3-3-3-3-3-3-3--0-0-0-0-0-0-0-0-0-0-0-0-0-0-0-0--

e--------------------------------------------------------------------
B--------------------------------------------------------------------
G--------------------------------------------------------------------
D-5-5-5-5-5-5-5-5-5-5-5-5--7-7-7-7--2-2-2-2-2-2-2-2-2-2-2-2-2-2-2-2--
A-5-5-5-5-5-5-5-5-5-5-5-5--7-7-7-7--2-2-2-2-2-2-2-2-2-2-2-2-2-2-2-2--
E-3-3-3-3-3-3-3-3-3-3-3-3--5-5-5-5--0-0-0-0-0-0-0-0-0-0-0-0-0-0-0-0--

chorus:

e----------------------------------------------------------------------
B----------------------------------------------------------------------
G-5-5-5-5-5-5-5-5-5-5-5-5-5-5-5-5--------------------5-5-5-5--7-7-7-7--
D-5-5-5-5-5-5-5-5-5-5-5-5-5-5-5-5--5-5-5-5--2-2-2-2--5-5-5-5--7-7-7-7--
A-3-3-3-3-3-3-3-3-3-3-3-3-3-3-3-3--5-5-5-5--2-2-2-2--3-3-3-3--5-5-5-5--
E----------------------------------3-3-3-3--0-0-0-0--------------------

e------------------------------------ R ----------------------------------
B------------------------------------ E ----------------------------------
G------4-----------5-5-5-5--7-7-7-7-- P -5-5-5-5-5-5-5-5-5-5-5-5-5-5-5-5--
D-5-5--4--2-2-2-2--5-5-5-5--7-7-7-7-- E -5-5-5-5-5-5-5-5-5-5-5-5-5-5-5-5--
A-5-5--2--2-2-2-2--3-3-3-3--5-5-5-5-- A -3-3-3-3-3-3-3-3-3-3-3-3-3-3-3-3--
E-3-3-----0-0-0-0-------------------- T ----------------------------------

outro:

e----------------------------------------------------------------
B----------------------------------------------------------------
G----------------------------4-----------------------------------
D-5-5-5-5-5-5-5-5-5-5-5-5-5--4--2-2-2-2-2-2-2-2-2-2-2-2-2-2-2-2--
A-5-5-5-5-5-5-5-5-5-5-5-5-5--2--2-2-2-2-2-2-2-2-2-2-2-2-2-2-2-2--
E-3-3-3-3-3-3-3-3-3-3-3-3-3-----0-0-0-0-0-0-0-0-0-0-0-0-0-0-0-0--

hopefully this is right. any problems let me know - dubej@unomaha.edu


     
Добавлено: 28.11.2013
Другие материалы по этой песне:
  • Аккорды и текст

Страница создана 28.11.2013
http://primanota.ru/starflyer-59/the-hearttaker-chords.htm
Привет, Гость.
Предлагаем пройти революционный курс по гитаре.
Подарок от PrimaNota.Ru, забирай!