PrimaNota.ru - самый крупный в мире бесплатный архив песенных текстов, аккордов, табулатур и нот


Starflyer 59 - The Boulevard - текст песни, таба, видео

Регистрация Запомнить меня
Войти через:  Facebook Google Twitter Vk Yandex Mail.ru

Starflyer 59 - The Boulevard - текст песни, таба, видео

Печатать
Просмотров: 77
		   The Boulevard
by Starflyer 59
written by Jason Martin

tuned down

main/verse:

e------|----///-------------------------------------------------------------------------------------------
B------|----///-------------------------------------------------------------------------------------------
G------|----///------------------7-7-7-7-7-7-7-7-----------------------------------------7-7-7-7-7-7-7-7--
D-2-2--|-2-2///-2-2-2-2-2-2-2-2--7-7-7-7-7-7-7-7--7-7-7-7-7-7-7-7-7-7-7-7-7-7--5-5--2-2--7-7-7-7-7-7-7-7--
A-2-2--|-2-2///-2-2-2-2-2-2-2-2--5-5-5-5-5-5-5-5--7-7-7-7-7-7-7-7-7-7-7-7-7-7--5-5--2-2--5-5-5-5-5-5-5-5--
E-0-0--|-0-0///-0-0-0-0-0-0-0-0-------------------5-5-5-5-5-5-5-5-5-5-5-5-5-5--3-3--0-0-------------------

chorus:

e---------------------------------------------------------------------------------------------------
B---------------------------------------------------------------------------------------------------
G---------------------------------------------------------------------------------------------------
D-7--10-10-10-10-10-10-10-10--7-7-7-7-7-7-7-7--12-12-12-12--10-10-10-10--7-7-7-7-7-7-7-7--9-9--7-7--
A-7--10-10-10-10-10-10-10-10--7-7-7-7-7-7-7-7--12-12-12-12--10-10-10-10--7-7-7-7-7-7-7-7--9-9--7-7--
E-5---8--8--8--8--8--8--8--8--5-5-5-5-5-5-5-5--10-10-10-10---8--8--8--8--5-5-5-5-5-5-5-5--7-7--5-5--


i think that's it, problems - dubej@unomaha.edu


     
Добавлено: 07.11.2013
Другие материалы по этой песне:
  • Аккорды и текст

Страница создана 23.07.2012
http://primanota.ru/starflyer-59/the-boulevard-chords.htm
Привет, Гость.
Предлагаем пройти революционный курс по гитаре.
Подарок от PrimaNota.Ru, забирай!