PrimaNota.ru - самый крупный в мире бесплатный архив песенных текстов, аккордов, табулатур и нот


Starflyer 59 - Sled - текст песни, таба, видео

Регистрация Запомнить меня
Войти через:  Facebook Google Twitter Vk Yandex Mail.ru

Starflyer 59 - Sled - текст песни, таба, видео

Печатать
Просмотров: 117
Уроки эстрадного вокала в Санкт-Петербурге
		   Song: Sled 
Artist: Starflyer 59
by: Jason Martin
tabbed by: Jared Momose

Tuning: standard  e,a,d,g,b,e

Intro:
  (heavy dist.)
 |-------------------------------------------------------------|
t|-------------------------------------------------------------|
 |-----------------6-6-6-6-6-6-6-6-4-4-4-4-4-4-4-4-------------|
a|-4-4-4-4-4-4-4-4-7-7-7-7-7-7-7-7-4-4-4-4-4-4-4-4-5-5-5-5-5-5-|
 |-4-4-4-4-4-4-4-4-5-5-5-5-5-5-5-5-2-2-2-2-2-2-2-2-5-5-5-5-5-5-|
b|-2-2-2-2-2-2-2-2-5-5-5-5-5-5-5-5-----------------3-3-3-3-3-3-|

Bridge:
Gtr1.
  (heavy dist.)
 |-------------------------------------------------------------|x2
t|-------------------------------------------------------------|
 |-----------------6-6-6-6-6-6-6-6-4-4-4-4-4-4-4-4-------------|
a|-4-4-4-4-4-4-4-4-7-7-7-7-7-7-7-7-4-4-4-4-4-4-4-4-5-5-5-5-5-5-|
 |-4-4-4-4-4-4-4-4-5-5-5-5-5-5-5-5-2-2-2-2-2-2-2-2-5-5-5-5-5-5-|
b|-2-2-2-2-2-2-2-2-5-5-5-5-5-5-5-5-----------------3-3-3-3-3-3-|

Gtr2.(solo)
  (heavy dist.)
 |-2-----------------------------------------------------------|x2
t|-----------------2----H3---3-3/5---2--H3---3-3/5--2-H3--3-3/5|
 |-------------------------------------------------------------|
a|-------------------------------------------------------------|
 |-------------------------------------------------------------|
b|-------------------------------------------------------------|
  lr..............

Verse1:
  (heavy dist.)
 |-----------------------------------------------------------------|
t|-----------------------------------------------------------------|
 |-4-4-4-4-4-4-4-4-5-5-5-5-5-5-5-5-----------------5-5-5-5-5-5-5-5-|
a|-4-4-4-4-4-4-4-4-4-4-4-4-4-4-4-4-2-2-2-2-2-2-2-2-4-4-4-4-4-4-4-4-|
 |-2-2-2-2-2-2-2-2-3-3-3-3-3-3-3-3-2-2-2-2-2-2-2-2-3-3-3-3-3-3-3-3-|
b|---------------------------------0-0-0-0-0-0-0-0-----------------|

 |-----------------------------------------------------------------|
t|-----------------------------------------------------------------|
 |-4-4-4-4-4-4-4-4-5-5-5-5-5-5-5-5---------------------------------|
a|-4-4-4-4-4-4-4-4-4-4-4-4-4-4-4-4-2-2-2-2-2-2-2-2-5-5-5-5-5-5-5-5-|
 |-2-2-2-2-2-2-2-2-3-3-3-3-3-3-3-3-2-2-2-2-2-2-2-2-5-5-5-5-5-5-5-5-|
b|---------------------------------0-0-0-0-0-0-0-0-3-3-3-3-3-3-3-3-|

 |*---------------------------------------------------------------*|
t|-----------------------------------------------------------------|
 |-4-4-4-4-4-4-4-4-----------------4-4-4-4-4-4-4-4-----------------|
a|-4-4-4-4-4-4-4-4-5-5-5-5-5-5-5-5-4-4-4-4-4-4-4-4-5-5-5-5-5-5-5-5-|
 |-2-2-2-2-2-2-2-2-5-5-5-5-5-5-5-5-2-2-2-2-2-2-2-2-5-5-5-5-5-5-5-5-|
b|-----------------3-3-3-3-3-3-3-3-----------------3-3-3-3-3-3-3-3-|

Bridge x1

Verse x1 (play the stuff between the stars
           two times instead of once)

Bridge x4 (start to fade out 4th time)     
Добавлено: 10.08.2013
Другие материалы по этой песне:
  • Аккорды и текст

Страница создана 26.04.2012
http://primanota.ru/starflyer-59/sled-chords.htm
Привет, Гость.
Предлагаем пройти революционный курс по гитаре.
Подарок от PrimaNota.Ru, забирай!