PrimaNota.ru - самый крупный в мире бесплатный архив песенных текстов, аккордов, табулатур и нот


Starflyer 59 - Sin For A Season - таба, видео

Регистрация Запомнить меня
Войти через:  Facebook Google Twitter Vk Yandex Mail.ru

Starflyer 59 - Sin For A Season - таба, видео

Печатать
Просмотров: 82
		   Author/Artist: Starflyer 59
Title: Sin for a Season
Album: I Predict a Clone (Steve Taylor Tribute)
Original Artist: Steve Taylor
Transcribed by: Justin Richer
Email: ru2def@cybertours.com

Use Dropped-D tuning [DADGBE] on a thick, low distortion
sound (humbuckers work best). Play with slow, driving rhythm.
The chords are written close together only to save space. This
is a slow song. Also, it's noise pop, so crank up the amp with
plenty of low-end and mid-range boost.

Intro:
e|-----------------------------|----------------------------------
b|-----------------------------|----------------------------------
g|-----------------------------|----------------------------------
d|0--0-0-0-0-0-8-8-8-8-8-8-8-8\|0-0-0-0-0-0-0-0-8-8-8-8-8-8-8-8---
a|0--0-0-0-0-0-8-8-8-8-8-8-8-8\|0-0-0-0-0-0-0-0-8-8-8-8-8-8-8-8---
D|0--0-0-0-0-0-8-8-8-8-8-8-8-8\|0-0-0-0-0-0-0-0-8-8-8-8-8-8-8-8---
                                                             There's a

Verse:
e|-------------------------------|--------------------------------
b|-------------------------------|--------------------------------
g|-------------------------------|2-2-2-2-2-2-2-2-----------------
d|7-7-7-7-7-7-7-7-3-3-3-3-3-3-3-3|2-2-2-2-2-2-2-2-3-3-3-3-3-3-3-3-
a|7-7-7-7-7-7-7-7-3-3-3-3-3-3-3-3|0-0-0-0-0-0-0-0-3-3-3-3-3-3-3-3-
D|7-7-7-7-7-7-7-7-3-3-3-3-3-3-3-3|----------------3-3-3-3-3-3-3-3-
  shaky hand...

e|-------------------------------|--------------------------------
b|-------------------------------|--------------------------------
g|2-2-2-2-2-2-2-2----------------|2-2-2-2-2-2-2-2-----------------
d|2-2-2-2-2-2-2-2-3-3-3-3-0-0-0-0|2-2-2-2-2-2-2-2-3-3-3-3-3-3-3-3-
a|0-0-0-0-0-0-0-0-3-3-3-3-0-0-0-0|0-0-0-0-0-0-0-0-3-3-3-3-3-3-3-3-
D|----------------3-3-3-3-0-0-0-0|----------------3-3-3-3-3-3-3-3-


e|-------------------------------|--------------------------------
b|-------------------------------|--------------------------------
g|2-2-2-2-2-2-2-2----------------|2-2-2-2-2-2-2-2-----------------
d|2-2-2-2-2-2-2-2-3-3-3-3-3-3-3-3|2-2-2-2-2-2-2-2-3-3-3-3-3-3-3-3-
a|0-0-0-0-0-0-0-0-3-3-3-3-3-3-3-3|0-0-0-0-0-0-0-0-3-3-3-3-3-3-3-3-
D|----------------3-3-3-3-3-3-3-3|----------------3-3-3-3-3-3-3-3-
 she never saw...

e|-------------------------------|--------------------------------
b|-------------------------------|--------------------------------
g|2-2-2-2-2-2-2-2----------------|2-2-2-2-2-2-2-2-----------------
d|2-2-2-2-2-2-2-2-3-3-3-3-0-0-0-0|2-2-2-2-2-2-2-2-3-3-3-3-3-3-3-3-
a|0-0-0-0-0-0-0-0-3-3-3-3-0-0-0-0|0-0-0-0-0-0-0-0-3-3-3-3-3-3-3-3-
D|----------------3-3-3-3-0-0-0-0|----------------3-3-3-3-3-3-3-3-
                                                                now the
Channel:
e|-------------------------------|--------------------------------
b|-------------------------------|--------------------------------
g|-------------------------------|--------------------------------
d|2-2-2-2-2-2-2-2-3-3-3-3-3-3-3-3|2-2-2-2-2-2-2-2-3-3-3-3-3-3-3-3-
a|2-2-2-2-2-2-2-2-3-3-3-3-3-3-3-3|2-2-2-2-2-2-2-2-3-3-3-3-3-3-3-3-
D|2-2-2-2-2-2-2-2-3-3-3-3-3-3-3-3|2-2-2-2-2-2-2-2-3-3-3-3-3-3-3-3-
  years run together...                             ...only child

Chorus (?):
e|-------------------------------|---------------------------------
b|-------------------------------|---------------------------------
g|-------------------------------|---------------------------------
d|0x---------------8-8-8-5---5-5/|7--7-5--5-3-2~~~~----------------
a|0x---------------8-8-8-5---5-5/|7--7-5--5-3-2~~~~----------------
D|0x---------------8-8-8-5---5-5/|7--7-5--5-3-2~~~~----------------
   I'm only human.                               sin for a season.

Repeat from Intro through Chorus, then play Outro Lead over
the second bar of the Intro.

Outro Lead:
e|--------------------|  |---
b|--------------------|  |---
g|--------------------|  |---
d|--------------------|  |-0-
a|---5----0/3-3-1-0---|  |-0-
D|-0----5-----------5-|  |-0-
                         (end)

Play the Outro Lead many times over scratching pick-noises
and other odd sounds. End on D power chord (above).
Let me know what you think!  ru2def@cybertours.com>
     
Добавлено: 02.06.2013
Другие материалы по этой песне:
  • Аккорды и текст

Страница создана 02.06.2013
http://primanota.ru/starflyer-59/sin-for-a-season-chords.htm
Привет, Гость.
Предлагаем пройти революционный курс по гитаре.
Подарок от PrimaNota.Ru, забирай!