PrimaNota.ru - самый крупный в мире бесплатный архив песенных текстов, аккордов, табулатур и нот


Starflyer 59 - She Was My Sweetheart - таба, видео

Регистрация Запомнить меня
Войти через:  Facebook Google Twitter Vk Yandex Mail.ru

Starflyer 59 - She Was My Sweetheart - таба, видео

Печатать
Просмотров: 96
Уроки эстрадного вокала в Санкт-Петербурге
StarFlyer 59 - "She Was My Sweetheart"
words & music by Jason Martin
Thirsty Moon River Publishing 1994


--------------------------------------
1-3-1-1--6-5-1-3-1-1------1-1---------
----------------------3-3--------0-2-2
-------------------------------3------
--------------------------------------
--------------------------------------


--------------------------------------------
1-1-1-1-3-1-1--6-5-1-3-1-1------1-1---------
----------------------------3-3--------0-2-2
-------------------------------------3------
--------------------------------------------
--------------------------------------------


-----------------------------------------------
5^--5-6-5^6^5^6^5--5-6-5^6^5^6^5--5-6-5^6^5^6^5 
-----------------------------------------------
-----------------------------------------------
-----------------------------------------------
-----------------------------------------------


--------------------------------------
10\-6-3-6-5-6/-10\-6-3-6-5-6-1--------
-------------------------------0-2-0-2
--------------------------------------
--------------------------------------
--------------------------------------


-----------------------------------------------
5^--5-6-5^6^5^6^5--5-6-5^6^5^6^5--5-6-5^6^5^6^5
-----------------------------------------------
-----------------------------------------------
-----------------------------------------------
-----------------------------------------------


------------------------------------------
1------------1-3---------------------1----
--3-2--2-3-3-----2---0-2-2--0-2--2-----3-2
-------------------3---------------3------
------------------------------------------
------------------------------------------


-----------------------------------------------
10\-6-3-6-5-6/-10-10\-6-5-6-3-5---1---1--------
--------------------------------3---3-----0-2-2
----------------------------------------3------
-----------------------------------------------
-----------------------------------------------


--------------------------------------------------
1--1-3-1-1--6-5\-1-3-1-1-----1-1------------------
-------------------------3-3-------0-2-2--0-2-0-2/
---------------------------------3----------------
--------------------------------------------------
--------------------------------------------------


----------------------------------------------
10\-6-3-6-5-6/-10-10\-6-3-6-5-6/-10\-6-3-6-5-6
----------------------------------------------
----------------------------------------------
----------------------------------------------
----------------------------------------------


----------------------------------------------------------
1--3-3-3-3-3-3-1-1--6-5-1-3-1-1------1-1------------------
---------------------------------3-3--------0-2-2--0-2-0-2
------------------------------------------3---------------
----------------------------------------------------------
----------------------------------------------------------


---------------------------------------------------13
---------------------------------------------------13
----------0-0-2--------------------------------------
2-2-2-3-3--------2-2-2--2-3--3-3-2-------------------
-----------------------------------3-3--0-1-1-3-3----
-----------------------------------------------------

     
Добавлено: 23.10.2013
Другие материалы по этой песне:
  • Аккорды и текст

Страница создана 23.10.2013
http://primanota.ru/starflyer-59/she-was-my-sweetheart-chords.htm
Привет, Гость.
Предлагаем пройти революционный курс по гитаре.
Подарок от PrimaNota.Ru, забирай!