PrimaNota.ru - самый крупный в мире бесплатный архив песенных текстов, аккордов, табулатур и нот


Starflyer 59 - Monterey - текст песни, таба, видео

Регистрация Запомнить меня
Войти через:  Facebook Google Twitter Vk Yandex Mail.ru

Starflyer 59 - Monterey - текст песни, таба, видео

Печатать
Просмотров: 161
		   Song:Monterey
Artist: Starflyer 59 
by: Jason Martin
tabbed by: Jared Momose

tuning: standard  e,a,d,g,b,e

chords:
GM7=2  DM7=2  Eb5=x  Bb5=x  G5=x  D5=x  
    0      2      4      x     x     3
    0      2      3      3     5     2
    0      0      1      3     5     0
    x      x      1      1     3     0
    x      x      x      1     3     x

Intro (Bridge):
        (exagerated cho.)                        (heavy dist.)
Gtr.1 [ GM7 => DM7 => GM7 => DM7 => GM7 => DM7 => Eb5 => Bb5]


Verse:
        (exagerated cho.)                        (heavy dist.)
Gtr.1 [ GM7 => DM7 => GM7 => DM7 => GM7 => DM7 => Eb5 => Bb5

        Eb5 => Bb5 =>  Eb5 => Bb5 =>  Eb5 => Bb5]


Chorus:
                  (heavy dist.)
Gtr.1             [G5 =>  D5 => Eb5 =>  Bb5      ]x4

        (exagerated cho.)
Gtr.2  |-------| |-------------------------------|x4
      t|-------| |----------------3-----3--2-3-2-|
       |-2-3-2-| |--3-2---2---------3---2--------|
      a|-------| |----------3---1-------3--------|
       |-------| |----------------------1--------|
      b|-------| |-------------------------------|
         lr....     lr..................arp.lr...


Bridge

Verse

Chorus x2.5 w/ Solo

Solo:
  (light funky cho.)
 |---------------------------------------------|
t|---------------------------------------------|
 |-7-7-7\5--5-5--5-5-5\3--3-3--3-3-2-3-5-7-8-7-|
a|---------------------------------------------|
 |---------------------------------------------|
b|---------------------------------------------|

     
Добавлено: 17.11.2013
Другие материалы по этой песне:
  • Аккорды и текст

Страница создана 06.06.2012
http://primanota.ru/starflyer-59/monterey-chords.htm
Привет, Гость.
Предлагаем пройти революционный курс по гитаре.
Подарок от PrimaNota.Ru, забирай!