PrimaNota.ru - самый крупный в мире бесплатный архив песенных текстов, аккордов, табулатур и нот


Starflyer 59 - Messed Up Over You - текст песни, таба, видео

Регистрация Запомнить меня
Войти через:  Facebook Google Twitter Vk Yandex Mail.ru

Starflyer 59 - Messed Up Over You - текст песни, таба, видео

Печатать
Просмотров: 101
		   Song: Messed Up Over You 
Artist: Starflyer 59
by: Jason Martin
tabbed by: The Armadillo

tune it all down a whole step: d-g-c-f-a-d
i don't know the names to all these chords, and keep in mind that
since the guitar is tuned down, they're really not these exact
chords...so bear with me. :)

 C    E?   Am   F?   D?   A?   ??
-0-  -3-  -0-  -0-  -0-  -0-  -0-
-1-  -0-  -1-  -1-  -3-  -1-  -1-
-0-  -0-  -2-  -2-  -2-  -1-  -2-
-2-  -2-  -2-  -3-  -0-  -2-  -0-
-3-  -2-  ---  ---  ---  ---  ---
---  ---  ---  ---  ---  ---  ---

         C        E?    Am       F?     C        E?      Am          F?
tell it long, so true sweetly to me so long, so blue completely over you
        C    D?   F?                  C  D?  F?      Am  A?  D?  ??
but now i'm  i'm  i'm messed up over you
     C       E?      Am      F?       C              E?      Am    F?
the girl for me completely i believe  time, you bind me completely beat me
        C    D?   F?                  C  D?  F?      Am  A?  D?  ??
but now i'm  i'm  i'm messed up over you
heavy part, rhythm:
-------------------------------------------------------------------------
-------------------------------------------------------------------------
-------------------------------------------------------7---7---7-7-7-7-x-
-7---7---7-7-7-7-x-6---6---6-6-6-6-x-3---3---3-3-3-3-x-7---7---7-7-7-7-x-
-7---7---7-7-7-7-x-6---6---6-6-6-6-x-3---3---3-3-3-3-x-5---5---5-5-5-5-x-
-5---5---5-5-5-5-x-4---4---4-4-4-4-x-1---1---1-1-1-1---------------------
 Am                A?                D?                ??

solo:
-------------------------------------------------------------------------
-------------------------------------------------------------------------
-----5-----5-----7updn-5-----7updn-5---7updn-5---7-u-p--------4-u-p------
-7-7-----7-----7---------6-----------6---------6-------------------------
-------------------------------------------------------------------------
-------------------------------------------------------------------------

2nd solo, later:
------8-9updnupdnupdn------8-10updn8---10updn8---10-up--------8-u-p------
-8^10-----------------8^10-----------6---------6-------------------------
-------------------------------------------------------------------------
-------------------------------------------------------------------------
-------------------------------------------------------------------------
-------------------------------------------------------------------------
 ...etc...you can improvise 'cos he repeats this about a million times :)

     
Добавлено: 26.08.2013
Другие материалы по этой песне:
  • Аккорды и текст

Страница создана 08.03.2012
http://primanota.ru/starflyer-59/messed-up-over-you-chords.htm
Привет, Гость.
Предлагаем пройти революционный курс по гитаре.
Подарок от PrimaNota.Ru, забирай!