PrimaNota.ru - самый крупный в мире бесплатный архив песенных текстов, аккордов, табулатур и нот


Starflyer 59 - Indiana - таба, видео

Регистрация Запомнить меня
Войти через:  Facebook Google Twitter Vk Yandex Mail.ru

Starflyer 59 - Indiana - таба, видео

Печатать
Просмотров: 79
Уроки эстрадного вокала в Санкт-Петербурге
		   Indiana
by Starflyer 59
written by Jason Martin
transcribed by Josh Dube

Verse:
        G            A         G           E             F        G
e-3-3-3-3-3-3-3-3-----------3-3-3-3------------------------------------
B-3-3-3-3-3-3-3-3-----------3-3-3-3------------------------------------
G-0-0-0-0-0-0-0-0--2-2-2-2--0-0-0-0------------------------------------
D-0-0-0-0-0-0-0-0--2-2-2-2--0-0-0-0--2-2-2-2-2-2-2-2--3-3-3-3--5-5-5-5-
A-2-2-2-2-2-2-2-2--0-0-0-0--2-2-2-2--2-2-2-2-2-2-2-2--3-3-3-3--5-5-5-5-
E-3-3-3-3-3-3-3-3-----------3-3-3-3--0-0-0-0-0-0-0-0--1-1-1-1--3-3-3-3-

e-----7^-------
B--------8-6-5-
G-7-9----------
D--------------
A--------------
E--------------

Chorus:
       G                  A                E                 F
e---------------------------------------------------------------------
B---------------------------------------------------------------------
G------------------2-2-2-2-2-2-2-2------------------------------------
D-5-5-5-5-5-5-5-5--2-2-2-2-2-2-2-2--2-2-2-2-2-2-2-2--3-3-3-3-3-3-3-3--
A-5-5-5-5-5-5-5-5--0-0-0-0-0-0-0-0--2-2-2-2-2-2-2-2--3-3-3-3-3-3-3-3--
E-3-3-3-3-3-3-3-3-------------------0-0-0-0-0-0-0-0--1-1-1-1-1-1-1-1--

Bridge:

e---------------------------------------------------------------------
B---------------------------------------------------------------------
G------------------4-4-4-4-4-4-4-4------------------------------------
D-5-5-5-5-5-5-5-5--4-4-4-4-4-4-4-4--4-4-4-4-4-4-4-4--2-2-2-2-2-2-2-2--
A-5-5-5-5-5-5-5-5--2-2-2-2-2-2-2-2--4-4-4-4-4-4-4-4--2-2-2-2-2-2-2-2--
E-3-3-3-3-3-3-3-3-------------------2-2-2-2-2-2-2-2--0-0-0-0-0-0-0-0--

e------------------------------------------------------------------------
B------------------------------------------------------------------------
G------------------4-4-4-4-4-4-4-4---------------------------------------
D-5-5-5-5-5-5-5-5--4-4-4-4-4-4-4-4--4-4-4-4-4-4-4-4--2-2-2-2-2-2-2-2--5--
A-5-5-5-5-5-5-5-5--2-2-2-2-2-2-2-2--4-4-4-4-4-4-4-4--2-2-2-2-2-2-2-2--5--
E-3-3-3-3-3-3-3-3-------------------2-2-2-2-2-2-2-2--0-0-0-0-0-0-0-0--3--

Solo:

e-7^----------
B----7^-------
G-------------
D-------9^----
A----------9^-
E-------------

questions, comments - dubej@unomaha.edu
     
Добавлено: 11.09.2013
Другие материалы по этой песне:
  • Аккорды и текст

Страница создана 11.09.2013
http://primanota.ru/starflyer-59/indiana-chords.htm
Привет, Гость.
Предлагаем пройти революционный курс по гитаре.
Подарок от PrimaNota.Ru, забирай!