PrimaNota.ru - самый крупный в мире бесплатный архив песенных текстов, аккордов, табулатур и нот


Starflyer 59 - Help Me When You're Gone - текст песни, таба, видео

Регистрация Запомнить меня
Войти через:  Facebook Google Twitter Vk Yandex Mail.ru

Starflyer 59 - Help Me When You're Gone - текст песни, таба, видео

Печатать
Просмотров: 89
		   Help Me When You're Gone
by Starflyer 59
written by Jason Martin
transcribed by Jon Riley

-----------------------------------------------------------------------------------------------
-0------0--------------7---------7-------------------5-------5----------5-----------7----------
---0------0----------------7---------7-------------------5--------5---------5/7----------------
-----------------------------------------------------------------------------------------------
-----------------------5-----------------------------3-----------------------------------------
-3---------------------------------------------------------------------------------------------

Chorus:Play 4x each:     D     Am       F      Cm7         D        Am
F(play this F 8x)

After Chorus ("Help me when you're gone...")

------------------------------------------------------------------------------------------------
-0------0--------------7---------7-------------------5-------4---------4------4-------4---------
---0------0----------------7---------7-------------------5-------5--------5-------5------5------
------------------------------------------------------------------------------------------------
-----------------------5-----------------------------3------------------------------------------
-3----------------------------------------------------------------------------------------------

Still don't know the solo at the end....
Email me in the near future and I will have it tabbed....
For any other Christian tabs...email me and I'll see what I can do!
FIFSkillet@aol.com
     
Добавлено: 12.11.2013
Другие материалы по этой песне:
  • Аккорды и текст

Страница создана 01.05.2012
http://primanota.ru/starflyer-59/help-me-when-youre-gone-chords.htm
Привет, Гость.
Предлагаем пройти революционный курс по гитаре.
Подарок от PrimaNota.Ru, забирай!