PrimaNota.ru - самый крупный в мире бесплатный архив песенных текстов, аккордов, табулатур и нот


Starflyer 59 - Hazel Would - текст песни, таба, видео

Регистрация Запомнить меня
Войти через:  Facebook Google Twitter Vk Yandex Mail.ru

Starflyer 59 - Hazel Would - текст песни, таба, видео

Печатать
Просмотров: 152
-------------------------------------------------------------------------------
			Hazel would - Starflyer 59
-------------------------------------------------------------------------------
Tabbed by: Hugo Amarales
Email: alberamaral@aol.com

Tuning: Drop D (DADGBE)

The two guitars in this song lead and rhythm I've done both of them

Intro

 Both guitars 
E|---------------------------------------------------------------------------|
B|---------------------------------------------------------------------------|
G|---------------------------------------------------------------------------|
D|--7-7-7-7-7-7-7-7-7-7-7-7--10-10-10-10-10-10-10----------------------------| x2
A|--7-7-7-7-7-7-7-7-7-7-7-7--10-10-10-10-10-10-10----------------------------|
D|--7-7-7-7-7-7-7-7-7-7-7-7--10-10-10-10-10-10-10----------------------------|
           
	Third time around do this

E|---------------------------------------------------------------------------|
B|---------------------------------------------------------------------------|
G|---------------------------------------------------------------------------|
D|--7-7-7-7-7-7-7-7-7-7-7-7--0-0-0-0--10-10-10--10-10-10---------------------|
A|--7-7-7-7-7-7-7-7-7-7-7-7--0-0-0-0--10-10-10--10-10-10---------------------|
D|--7-7-7-7-7-7-7-7-7-7-7-7--0-0-0-0--10-10-10--10-10-10---------------------|

E|---------------------------------------------------------------------------|
B|---------------------------------------------------------------------------|
G|---------------------------------------------------------------------------|
D|--7-7-7-7--5-5-5-5--0-0-0-0-0-0-0-0-0-0-0-0--------------------------------|
A|--7-7-7-7--5-5-5-5--0-0-0-0-0-0-0-0-0-0-0-0--------------------------------|
D|--7-7-7-7--5-5-5-5--0-0-0-0-0-0-0-0-0-0-0-0--------------------------------|

Chorus

E|---------------------------------------------------------------------------|
B|---------------------------------------------------------------------------|
G|---------------------------------------------------------------------------|
D|--7-7-7-7-7-7-7-7-7-7-7-7-7--0-0-0-0-0-0-0-0-0-0-0-0-----------------------|
A|--7-7-7-7-7-7-7-7-7-7-7-7-7--0-0-0-0-0-0-0-0-0-0-0-0-----------------------|
D|--7-7-7-7-7-7-7-7-7-7-7-7-7--0-0-0-0-0-0-0-0-0-0-0-0-----------------------|

E|---------------------------------------------------------------------------|
B|---------------------------------------------------------------------------|
G|---------------------------------------------------------------------------|
D|--7-7-7-7-7-7-7-7-7-7-7-7-7--0-0-0-0-0-0-0-0-0-0-0-0--10-10-10-10-10-10-10-|
A|--7-7-7-7-7-7-7-7-7-7-7-7-7--0-0-0-0-0-0-0-0-0-0-0-0--10-10-10-10-10-10-10-|
D|--7-7-7-7-7-7-7-7-7-7-7-7-7--0-0-0-0-0-0-0-0-0-0-0-0--10-10-10-10-10-10-10-|

E|---------------------------------------------------------------------------|
B|---------------------------------------------------------------------------|
G|---------------------------------------------------------------------------|
D|--7-7-7-7--5-5-5-5--0-0-0-0--10-10-10-10-----------------------------------|
A|--7-7-7-7--5-5-5-5--0-0-0-0--10-10-10-10-----------------------------------|
D|--7-7-7-7--5-5-5-5--0-0-0-0--10-10-10-10-----------------------------------|


E|---------------------------------------------------------------------------|
B|---------------------------------------------------------------------------|
G|---------------------------------------------------------------------------|
D|--7-7-7-7--5-5-5-5--0-0-0-0-0-0-0-0----------------------------------------|
A|--7-7-7-7--5-5-5-5--0-0-0-0-0-0-0-0----------------------------------------|
D|--7-7-7-7--5-5-5-5--0-0-0-0-0-0-0-0----------------------------------------|

Verse
 
Lead guitar do this over rhythm guitars part
E|---------------------------------------------------------------------------|
B|---------------------------------------------------------------------------|
G|---------------------------------------------------------------------------|
D|--5-5-5-3-2-2-2-3-5-5-5-5-7-2-2-2-3----------------------------------------|
A|---------------------------------------------------------------------------|
D|---------------------------------------------------------------------------|

Rhythm guitar does this
E|---------------------------------------------------------------------------|
B|---------------------------------------------------------------------------|
G|---------------------------------------------------------------------------|
D|--7-7-7-7-7-7-7-7----10-10-10-10-10-10-10-10-------------------------------| X2
A|--7-7-7-7-7-7-7-7----10-10-10-10-10-10-10-10-------------------------------|
D|--7-7-7-7-7-7-7-7----10-10-10-10-10-10-10-10-------------------------------|

And then this on rhythm

E|---------------------------------------------------------------------------|
B|---------------------------------------------------------------------------|
G|---------------------------------------------------------------------------|
D|--7-7-7-7-7-7-7-7---0-0-0-0-0-0-0-0-0--------------------------------------|
A|--7-7-7-7-7-7-7-7---0-0-0-0-0-0-0-0-0--------------------------------------|
D|--7-7-7-7-7-7-7-7---0-0-0-0-0-0-0-0-0--------------------------------------|

Chorus

E|---------------------------------------------------------------------------|
B|---------------------------------------------------------------------------|
G|---------------------------------------------------------------------------|
D|--7-7-7-7-7-7-7-7--0-0-0-0-0-0-0-0--10-10-10--10-10-10-10------------------|
A|--7-7-7-7-7-7-7-7--0-0-0-0-0-0-0-0--10-10-10--10-10-10-10------------------|
D|--7-7-7-7-7-7-7-7--0-0-0-0-0-0-0-0--10-10-10--10-10-10-10------------------|

E|---------------------------------------------------------------------------|
B|---------------------------------------------------------------------------|
G|---------------------------------------------------------------------------|
D|-7-7-7-7-7-7-7-7--5-5-5-5-5-5-5-5--0-0-0-0-0-0-0-0--10-10-10-10-10-10-10-10|
A|-7-7-7-7-7-7-7-7--5-5-5-5-5-5-5-5--0-0-0-0-0-0-0-0--10-10-10-10-10-10-10-10|
D|-7-7-7-7-7-7-7-7--5-5-5-5-5-5-5-5--0-0-0-0-0-0-0-0--10-10-10-10-10-10-10-10|

E|---------------------------------------------------------------------------|
B|---------------------------------------------------------------------------|
G|---------------------------------------------------------------------------|
D|-7-7-7-7-7-7-7-7--5-5-5-5-5-5-5-5--0-0-0-0-0-0-0-0-0-0-0-0-0-0-0-0---------|
A|-7-7-7-7-7-7-7-7--5-5-5-5-5-5-5-5--0-0-0-0-0-0-0-0-0-0-0-0-0-0-0-0---------|
D|-7-7-7-7-7-7-7-7--5-5-5-5-5-5-5-5--0-0-0-0-0-0-0-0-0-0-0-0-0-0-0-0---------|

Verse

Lead guitar does this
Do this till the end of the song as it fades out

E|---------------------------------------------------------------------------|
B|---------------------------------------------------------------------------|
G|---------------------------------------------------------------------------|
D|--5-5-5-3-2-2-2-3-5-5-5-5-7-2-2-2-3----------------------------------------|
A|---------------------------------------------------------------------------|
D|---------------------------------------------------------------------------|

Rhythm guitar does this till the end of the song

E|---------------------------------------------------------------------------|
B|---------------------------------------------------------------------------|
G|---------------------------------------------------------------------------|
D|--7-7-7-7-7-7-7-7-7-7-7-7--10-10-10-10-10-10-10-10-10-10-10-10-------------|
A|--7-7-7-7-7-7-7-7-7-7-7-7--10-10-10-10-10-10-10-10-10-10-10-10-------------|
D|--7-7-7-7-7-7-7-7-7-7-7-7--10-10-10-10-10-10-10-10-10-10-10-10-------------|

| / Slide up
| \ Slide down
| H hammer-on
| P pull-off
| ~ Vibrato
| + Harmonic
|   X Mute note 

Lyrics

honestly I'd rather sleep
but your holding me to it all

on the deeper side
I'm just a ride
you're mine
you're it all

and I'm craving to lift you up
and I'm craving to take the fall

on the deeper side
I'm just a ride
you're mine
you're it your all

===============================================================================
Добавлено: 24.05.2012
Другие материалы по этой песне:
  • Аккорды и текст

Страница создана 24.05.2012
http://primanota.ru/starflyer-59/hazel-would-chords.htm
Привет, Гость.
Предлагаем пройти революционный курс по гитаре.
Подарок от PrimaNota.Ru, забирай!