PrimaNota.ru - самый крупный в мире бесплатный архив песенных текстов, аккордов, табулатур и нот


Starflyer 59 - Harmony - текст песни, таба, видео

Регистрация Запомнить меня
Войти через:  Facebook Google Twitter Vk Yandex Mail.ru

Starflyer 59 - Harmony - текст песни, таба, видео

Печатать
Просмотров: 88
		   Harmony
by Starflyer 59
written by Jason Martin
transcribed by Josh Dube

intro:
e--------------------------------------------------------------------
B--------------------------------------------------------------------
G-7-7-7-7-7-7-7-7-7-7-7-7-----------7-7-7-7-7-7-7-7-7-7-7-7----------
D-7-7-7-7-7-7-7-7-7-7-7-7--5-5-5-5--7-7-7-7-7-7-7-7-7-7-7-7--5-5-5-5-
A-5-5-5-5-5-5-5-5-5-5-5-5--5-5-5-5--5-5-5-5-5-5-5-5-5-5-5-5--5-5-5-5-
E--------------------------3-3-3-3---------------------------3-3-3-3-

e--------------------------------------------------------------
B--------------------------------------------------------------
G-7-7-7-7-7-7-7-7-7-7-7-7-----------7-7-7-7-7-7-7-7-7-7-7-7----
D-7-7-7-7-7-7-7-7-7-7-7-7--5-5-5-5--7-7-7-7-7-7-7-7-7-7-7-7--5-
A-5-5-5-5-5-5-5-5-5-5-5-5--5-5-5-5--5-5-5-5-5-5-5-5-5-5-5-5--5-
E--------------------------3-3-3-3---------------------------3-

verse:  x4
e------------------------------------------------------------------
B------------------------------------------------------------------
G-7-7-7-7-7-7-7-7-7-7-7-7-7-7-7-7----------------------------------
D-7-7-7-7-7-7-7-7-7-7-7-7-7-7-7-7--5-5-5-5-5-5-5-5-5-5-5-5-5-5-5-5-
A-5-5-5-5-5-5-5-5-5-5-5-5-5-5-5-5--5-5-5-5-5-5-5-5-5-5-5-5-5-5-5-5-
E----------------------------------3-3-3-3-3-3-3-3-3-3-3-3-3-3-3-3-

chorus:  x2
e-------------------------------------------------------------------
B-------------------------------------------------------------------
G-------------------------------------------------------------------
D-9-9-9-9-9-9-9-9--7-7-7-7-7-7-7-7--5-5-5-5-5-5-5-5-5-5-5-5-5-5-5-5-
A-9-9-9-9-9-9-9-9--7-7-7-7-7-7-7-7--5-5-5-5-5-5-5-5-5-5-5-5-5-5-5-5-
E-7-7-7-7-7-7-7-7--5-5-5-5-5-5-5-5--3-3-3-3-3-3-3-3-3-3-3-3-3-3-3-3-

solo #1:
e-9-9-5-5---5-5---5-------------9--
B---------7-----7---5-7-7-5-7------
G----------------------------------
D----------------------------------
A----------------------------------
E----------------------------------

solo #2: this solo is just different variations of this
e-9-9-5-5----------
B---------7-7-5-5--
G------------------
D------------------
A------------------
E------------------

questions, problems - dubej@unomaha.edu
     
Добавлено: 17.08.2013
Другие материалы по этой песне:
  • Аккорды и текст

Страница создана 28.03.2012
http://primanota.ru/starflyer-59/harmony-chords.htm
Привет, Гость.
Предлагаем пройти революционный курс по гитаре.
Подарок от PrimaNota.Ru, забирай!