PrimaNota.ru - самый крупный в мире бесплатный архив песенных текстов, аккордов, табулатур и нот


Starflyer 59 - Everyone But Me - текст песни, таба, видео

Регистрация Запомнить меня
Войти через:  Facebook Google Twitter Vk Yandex Mail.ru

Starflyer 59 - Everyone But Me - текст песни, таба, видео

Печатать
Просмотров: 111
		   Everyone But Me
Starflyer 59
(c) 1997 Thirsty Moon River (ASCAP) / Blue Collar Songs
tabbed by Israel Slick

I'm just putting in the where the chords change so you can figure out the rhythm.
Also tune the low E down to a D

        Please        say what you      mean,  got time for everyone but me, everyone but me
D|---6-------4----------------6---------4--------------11--------13-----11--------13---|
A|---6-------4----------------6---------4--------------11--------13-----11--------13---|
D|---6-------4----------------6---------4--------------11--------13-----11--------13---|

On the solo, the 11(Ab), is played more times than others so just listen to the CD to get it.
D|-------------------------------------11------------------------|
A|-11--11--11--11--11--13--11--9----11-----11--11--11--13--11--9-|
D|-------------------------------13------------------------------|

D|----------------------|
A|----------------------|
D|-13--11--13--15-15-15-|

Don't tell me after how I feel
G|-6-----------------------|
D|-6--------4-----------6--|
A|-4--------4-----------6--|
E|----------4-----------6--|     
Добавлено: 17.09.2013
Другие материалы по этой песне:
  • Аккорды и текст

Страница создана 26.06.2012
http://primanota.ru/starflyer-59/everyone-but-me-chords.htm
Привет, Гость.
Предлагаем пройти революционный курс по гитаре.
Подарок от PrimaNota.Ru, забирай!