PrimaNota.ru - самый крупный в мире бесплатный архив песенных текстов, аккордов, табулатур и нот


Starflyer 59 - Dual Overhead Cam - таба, видео

Регистрация Запомнить меня
Войти через:  Facebook Google Twitter Vk Yandex Mail.ru

Starflyer 59 - Dual Overhead Cam - таба, видео

Печатать
Просмотров: 107
		   Song: Dual Overhead Cam
Artist: Starflyer 59 
by: Jason Martin
tabbed by: The Armadillo 

tune the whole guitar down a whole step (2 frets)

-----------------    ring this ->   -2---     chord at the  -0-
-----------------    every other    -----     end of every  -0-
-----0---------0-    measure        ---4-     verse:        -4-
-----4---------4-                   -----               ->  -5-
-----------------  - several        -----                   ---
-0-0---0-3-3-3---    times          -----                   ---


-------------------------------------
-------------------------------------
-------------------------------------
-5---5-5---5-5/7---7-7---7--10--10---   (distortion)
-5---5-5---5-5/7---7-7---7--10--10---
-3---3-3---3-3/5---5-5---5---8---8---


mute the rhythm part in the bridge:
-------------------------------------------------------  (this is also the
-------------------------------------------------------   heavily distorted
-------------------------------------------------------   ending part)
-2---2-2-5-/-10-10-10=9B7---7-2---2-2-5-/-10-10-10=9B7---7-
-2---2-2-5-/-10-10-10=9B7---7-2---2-2-5-/-10-10-10=9B7---7-
-0---0-0-3-/-8---8--8=9B5---5-0---0-0-3-/-8---8--8=9B5---5-


------0--------------------------0---------------------
-------------------------------------------------------
-------------8-up-----------------------8-up-----------
-8-up----dwn----------------8-up----dwn----------------
-------------------------------------------------------
-------------------------------------------------------


here are bits and pieces of the solo (played in key of e fingering)
-------------------------------------------
-------------------------------------------
---0-----0-------0-----x-8-up------8-up----
-2---2/4---4--/5---5=9B4-x-------8-----------
-------------------------------------------
-------------------------------------------
                           ...blah, balh, etc...that's the best i can do.
the heavily distorted outro is identical to the bridge earlier

     
Добавлено: 25.09.2013
Другие материалы по этой песне:
  • Аккорды и текст

Страница создана 25.09.2013
http://primanota.ru/starflyer-59/dual-overhead-cam-chords.htm
Привет, Гость.
Предлагаем пройти революционный курс по гитаре.
Подарок от PrimaNota.Ru, забирай!