PrimaNota.ru - самый крупный в мире бесплатный архив песенных текстов, аккордов, табулатур и нот


Starflyer 59 - Droned - текст песни, таба, видео

Регистрация Запомнить меня
Войти через:  Facebook Google Twitter Vk Yandex Mail.ru

Starflyer 59 - Droned - текст песни, таба, видео

Печатать
Просмотров: 95
		   From BHSETT1@UKCC.UKY.EDU Wed Jan 10 17:47:56 1996


starflyer 59 - "droned (in love version)"
tune the entire guitar down 1 step (2 frets)
chords:  D   A?  G   G2  F?  Am  Em  C   riff:
        -2- -2- -3- -3- -0- -0- -0- -0- ----------------------------------
        -3- -2- -0- -3- -1- -1- -0- -1- ----------------------------------
        -2- -2- -0- -0- -2- -2- -0- -0- -----0------------0-------------0-
        -0- -2- -0- -0- -3- -2- -2- -2- ---0-----0------0-----0-------0---
        --- --- --- --- --- --- -2- -3- -4-----------4----------4---4-----
        --- --- --- --- --- --- --- --- ----------------------------------

D                      A?         G   G2   riff
  when you've taken it all i know it
D                      A?         G   G2   riff
  when you've faked it all i know it
          F?            Am            Em               F?
  and i'm going to your arms and when he's away you're here to stay
C             Am        F?      Em
  you're the best thing    easily   (2x)

riff2: -2-----2---2^----2---3-
       -3-----0---x-----2---0-
       -2-----0---------2---0-  ...etc...
       -----------------0-----
       -----------------------
       -----------------------

tabbed by burr "armadillo" settles  bhsett1@ukcc.uky.edu>

     
Добавлено: 04.10.2013
Другие материалы по этой песне:
  • Аккорды и текст

Страница создана 28.07.2012
http://primanota.ru/starflyer-59/droned-chords.htm
Привет, Гость.
Предлагаем пройти революционный курс по гитаре.
Подарок от PrimaNota.Ru, забирай!