PrimaNota.ru - самый крупный в мире бесплатный архив песенных текстов, аккордов, табулатур и нот


Starflyer 59 - All You Want Are The Things I Need - текст песни, таба, видео

Регистрация Запомнить меня
Войти через:  Facebook Google Twitter Vk Yandex Mail.ru

Starflyer 59 - All You Want Are The Things I Need - текст песни, таба, видео

Печатать
Просмотров: 104
		   All You Want Are The Things I Need
by Starflyer 59
written by Jason Martin

intro/main:

e--------|---------------------------------------------------------------------
B--------|---------------------------------------------------------------------
G--------|------------------5---------------5/7--------------------------------
D-5/7-7--|-5/7-7-7-7-7-7-7--5--7-7-7-7-7-7--5/7--7-7-7-7-7-7--3-3-3-3-3-3-3-3--
A-5/7-7--|-5/7-7-7-7-7-7-7--3--7-7-7-7-7-7--3/5--7-7-7-7-7-7--3-3-3-3-3-3-3-3--
E-3/5-5--|-3/5-5-5-5-5-5-5-----5-5-5-5-5-5-------5-5-5-5-5-5--1-1-1-1-1-1-1-1--

verse:

e--------------------------------------------------------------------------------------------------
B--------------------------------------------------------------------------------------------------
G------------------------------------------------------------------------------------5-5-5--7-7-7--
D-7-7-7-7-7-7-7-7--5-5-5--3-3-3-3-3-3--7-7-7-7-7-7-7-7--5-5-5--3-3-3-3-3-3--7-7-7-7--5-5-5--7-7-7--
A-7-7-7-7-7-7-7-7--5-5-5--3-3-3-3-3-3--7-7-7-7-7-7-7-7--5-5-5--3-3-3-3-3-3--7-7-7-7--3-3-3--5-5-5--
E-5-5-5-5-5-5-5-5--3-3-3--1-1-1-1-1-1--5-5-5-5-5-5-5-5--3-3-3--1-1-1-1-1-1--5-5-5-5----------------

e-------------------------------------------------------------------
B-------------------------------------------------------------------
G-------------------5-5-5-5--7-7-7-7--------------------------------
D-3-3-3-3--7-7-7-7--5-5-5-5--7-7-7-7--3-3-3-3-3-3-3-3--5-5-5-5-5-5--
A-3-3-3-3--7-7-7-7--3-3-3-3--5-5-5-5--3-3-3-3-3-3-3-3--5-5-5-5-5-5--
E-1-1-1-1--5-5-5-5--------------------1-1-1-1-1-1-1-1--3-3-3-3-3-3--

chorus:

e------------------------------------------------------------------------------------------------------------------------------------------------------
B------------------------------------------------------------------------------------------------------------------------------------------------------
G------------------5-5-5-5-5-5-5-5-------------------5-5-5-5-5-5-5-5-------------------5-5-5-5-5-5-5-5-------------------5-5-5-5-5-5-5-5--7-7-7-7-7-7--
D-3-3-3-3-3-3-3-3--5-5-5-5-5-5-5-5--3-3-3-3-3-3-3-3--5-5-5-5-5-5-5-5--3-3-3-3-3-3-3-3--5-5-5-5-5-5-5-5--3-3-3-3-3-3-3-3--5-5-5-5-5-5-5-5--7-7-7-7-7-7--
A-3-3-3-3-3-3-3-3--3-3-3-3-3-3-3-3--3-3-3-3-3-3-3-3--3-3-3-3-3-3-3-3--3-3-3-3-3-3-3-3--3-3-3-3-3-3-3-3--3-3-3-3-3-3-3-3--3-3-3-3-3-3-3-3--5-5-5-5-5-5--
E-1-1-1-1-1-1-1-1-------------------1-1-1-1-1-1-1-1-------------------1-1-1-1-1-1-1-1-------------------1-1-1-1-1-1-1-1--------------------------------

outro:

e-----------------------------------
B-----------------------------------
G------------------5-5-5-5-5-5-5-5--
D-3-3-3-3-3-3-3-3--5-5-5-5-5-5-5-5--
A-3-3-3-3-3-3-3-3--3-3-3-3-3-3-3-3--
E-1-1-1-1-1-1-1-1-------------------

intro
verse
chorus
main
verse
main
chorus
outro

problems - dubej@unomaha.edu


     
Добавлено: 24.10.2013
Другие материалы по этой песне:
  • Аккорды и текст

Страница создана 13.04.2012
http://primanota.ru/starflyer-59/all-you-want-are-the-things-i-need-chords.htm
Привет, Гость.
Предлагаем пройти революционный курс по гитаре.
Подарок от PrimaNota.Ru, забирай!