PrimaNota.ru - самый крупный в мире бесплатный архив песенных текстов, аккордов, табулатур и нот


Starflyer 59 - 2nd Space Song - текст песни, таба, видео

Регистрация Запомнить меня
Войти через:  Facebook Google Twitter Vk Yandex Mail.ru

Starflyer 59 - 2nd Space Song - текст песни, таба, видео

Печатать
Просмотров: 100
Уроки эстрадного вокала в Санкт-Петербурге
		   From BHSETT1@UKCC.UKY.EDU Thu Jan 25 15:10:14 1996


starflyer 59 - "2nd space song"

this is one of the hardest songs for me to ever figure out...so please bare
with me if some of it is wrong...
     ...and as always when playing a starflyer song, tune the low e string down
        to a d.
**intro1**
g-------------------------------------------------
u--0--0--0--0--0--0--0--0--0--0--0--0--0--0--0--0-
i-11-11-11-11-13-13-13-13--9--9--9--9--7--7--7--7-
t-------------------------------------------------
#-------------------------------------------------
1-------------------------------------------------
                                                      2x

g-------------------------------------------------
u-------------------------------------------------
i-------------------------------------------------
t-14-14-14-14-14-14-14-14-12-12-12-12-12-12-12-12-
#-14-14-14-14-14-14-14-14-12-12-12-12-12-12-12-12-
2-14-14-14-14-14-14-14-14-12-12-12-12-12-12-12-12-


g------------------------------------------------
u-3--3--3--3--3--3--3--3--0--0--0--0--0--0--0--0-
i-5--5--5--5--4--4--4--4--9--9--9--9--7--7--7--7-
t------------------------------------------------
#------------------------------------------------
1------------------------------------------------


g------------------------------------------------
u----------------------------------------------
i------------------------------------------------
t-7--7--7--7--7--7--7--7-12-12-12-12-12-12-12-12-
#-7--7--7--7--7--7--7--7-12-12-12-12-12-12-12-12-
2-7--7--7--7--7--7--7--7-12-12-12-12-12-12-12-12-


**intro2**
g-----0---------------0-----2---2-
u---0-----------------------------
i-0-------------------------------
t-------------------------0---0---
#---------------------------------
1---------------------------------
                                    ...4x

g---------------------------------
u---------------------------------
i---------------------2-----4---4-
t-----------5-7›3---3----/5---5---
#---------------------------------
2---------------------------------


**intro3**
g-x-------0-    g-----------
u-0-------0-    u-4-------5-
i-2-------2-    i-----------
t-2-------2-    t-----------
#-----------    #-----------
1----------     2-----------


**verses(finally!)**
  -x-      ---           ---             -x-    ---                  ---
  -0-      ---           -0-         r   -0-    ---                  ---      r
  -2-      ---           -2-         i   -2-    ---                  ---      i
  -2-      -8-           -2-         f   -2-    -8-                  -8-      f
  ---      ---           ---         f   ---    ---                  ---      f
  ---      ---           ---             ---    ---                  ---
1.call a friend, be here until the end. eyes so kind one that you'll never find
2.born to grace, one that you don't chase. count the sand Jesus in your hands
riff: -----------------
      -----------------
      -----------------
      ---1---------3---
      -2---2-2/4-----4-
      -----------------


**chorus**
------------------------------------------------
------------------------------------------------
------------------------------------------------
-6--6--6--6--6--6--6--6--2--2--2--2/10-10-10-10-   ...4x
-6--6--6--6--6--6--6--6--2--2--2--2/10-10-10-10-
-6--6--6--6--6--6--6--6--2--2--2--2/10-10-10-10-
ways....                        i love your ways...


**outtro**
g--------------------------------------------------------------
u---8›3---------------------------7›3--------------------------
i-------------0-2-4---4b5b4-2-4-------------0-2-4---4b5b4-2-0-
t--------------------------------------------------------------
#--------------------------------------------------------------
1--------------------------------------------------------------


g-3-------2---0-----------2-----3-------2---0------------2-----
u-0-------3---1-----------3-----0-------3---1------------3-----
i-0-------2---0-----------2-----0-------2---0------------2-----
t-0-------0---2-----------0-----0-------0---2------------0-----
#-2-----------2-----------------2-----------2------------------
2--------------------------------------------------------------

...whew! tabbed by burr "armadillo" settles  bhsett1@ukcc.uky.edu>

     
Добавлено: 08.06.2013
Другие материалы по этой песне:
  • Аккорды и текст

Страница создана 19.06.2012
http://primanota.ru/starflyer-59/2nd-space-song-chords.htm
Привет, Гость.
Предлагаем пройти революционный курс по гитаре.
Подарок от PrimaNota.Ru, забирай!