PrimaNota.ru - самый крупный в мире бесплатный архив песенных текстов, аккордов, табулатур и нот


Stardust - Music Sounds Better With You - текст песни, таба, бас-таба, видео

Регистрация Запомнить меня
Войти через:  Facebook Google Twitter Vk Yandex Mail.ru

Stardust - Music Sounds Better With You - текст песни, таба, бас-таба, видео

Печатать
Просмотров: 233
Уроки эстрадного вокала в Санкт-Петербурге
Авторы музыки: Thomas Bangalter, Benjamin Cohen, Dominic Bugatti, Alain Quême, Frank Musker
Авторы текста: Benjamin Cohen
           This is acoustic version of very nice song from Stardust, 
it's called Music Sounds Better With You. I based on acoustic
 cover of this song from Pony Pony Run Run (link bellow). 
                         I hope you enjoy it ! ;D 

       EADGBe
Em7:  |022030|
Fmaj7:|102210| or Am but instead strum E you strum A string 
G:    |320033|


     Em7   Fmaj7   Em7   Fmaj7   Em7    Fmaj7
e|--(0)----0--0---(0)----0--0----(0)----0--0-------------|
B|---3--3--1---1---3--3--1---1----3--3--1---1------------|
G|---0-----2----2--0-----2----2---0-----2----2-----------|
D|-------------------------------------------------------|
A|---2-------------2--------------2----------------------|
E|---------1-------------1--------------1----------------|
     Ooooh baby                 I feel night

     G     Fmaj7   G     Fmaj7    G     Fmaj7
e|---3--3--0--0----3--3--0--0-----3--3--0--0------------|
B|---------1---1---------1---1----------1---1-----------|
G|--(0)----2----2-(0)----2----2--(0)----2----2----------|
D|------------------------------------------------------|
A|------------------------------------------------------|
E|---3-----1-------3-----1--------3-----1---------------|
The music sounds better with you      ...

Aaaaaaaaaaand whooooole sooooong liiiiike theeeeeere

Pony Pony Run Run cover  : http://www.youtube.com/watch?v=-Wn_X5TOH9s
Stardust original version: http://www.youtube.com/watch?v=4YCoSF-voHY
Добавлено: 22.02.2012
Другие материалы по этой песне:
  • Аккорды и текст

Страница создана 22.02.2012
http://primanota.ru/stardust/music-sounds-better-with-you-chords.htm
Привет, Гость.
Предлагаем пройти революционный курс по гитаре.
Подарок от PrimaNota.Ru, забирай!