PrimaNota.ru - самый крупный в мире бесплатный архив песенных текстов, аккордов, табулатур и нот


Star Wars Music - Lukes Theme Or The Binary Sunset - таба, видео

Регистрация Запомнить меня
Войти через:  Facebook Google Twitter Vk Yandex Mail.ru

Star Wars Music - Lukes Theme Or The Binary Sunset - таба, видео

Печатать
Просмотров: 174
-------------------------------------------------------------------------------
                         LUKES THEME - STAR WARS MUSIC
-------------------------------------------------------------------------------
Tabbed by: NorwegianBoy69J
E-mail:ja.onshuus@live.no

This is the force theme/lukes theme/binary sun or whatever you want to call it.

Enjoy 
Tuning: Standard

e|---------------------------------------------------------------------------|
B|---------------------------------------------------------------------------|
G|---------------------------------------------------------------------------|
D|----0---2-----3h5p3---------------0--2-3-0-3-0-3--7-5----------------------|
A|--0------------------0---0-------------------------------------------------|
E|---------------------------------------------------------------------------|

e|---------------------------------------------------------------------------|
B|---------------------------------------------------------------------------|
G|---------------------2--7--------------------------------------------------|
D|---------0---2-3-0----3----------------------------------------------------|
A|--0-0-0------------------------7-6-4-----7-6-4--------------4--------------|
E|----------------------------------------------------4---4--4---------------|
Octave up:

e|----------0--1h3p1------------------0-1-1-5-3------------------------------|
B|--------3--------------------3---------3-3---------------------------------|
G|--2-2-2-------------2------2-----------------------------------------------|
D|---------------------------------------------------------------------------|
A|---------------------------------------------------------------------------|
E|---------------------------------------------------------------------------|

e|---------0-1--5----10------------------------------------------------------|
B|-------3----3---6----------------------------10----------------------------|
G|-2-2-2------------------10---10----9-----7------10-9-7------7--------------|
D|-------------------------------------------------------7-7-7---------------|
A|---------------------------------------------------------------------------|
E|---------------------------------------------------------------------------|
************************************

| /   slide up
| \   slide down
| h   hammer-on
| p   pull-off
| ~   vibrato
| +   harmonic
| x   Mute note
| b   Bend
| pb  Pre-bend
| br  Bend release
| pbr Pre-bend release
| brb Bend release bend

************************************
Добавлено: 20.06.2016
Вам также может быть интересно:
Другие материалы по этой песне:
  • Аккорды и текст

Страница создана 20.06.2016
http://primanota.ru/star-wars-music/lukes-theme-or-binary-sunset-chords.htm
Привет, Гость.
Предлагаем пройти революционный курс по гитаре.
Подарок от PrimaNota.Ru, забирай!