PrimaNota.ru - самый крупный в мире бесплатный архив песенных текстов, аккордов, табулатур и нот


Star Wars Music - The Force Theme - таба, видео

Регистрация Запомнить меня
Войти через:  Facebook Google Twitter Vk Yandex Mail.ru

Star Wars Music - The Force Theme - таба, видео

Печатать
Просмотров: 438
-------------------------------------------------------------------------------
                             The Force Theme - Star Wars Music
-------------------------------------------------------------------------------
Tabbed by: Scheurich_media
E-mail: Nonameproductions2k@gmail.com

Tuning:
E ---------5--6-8-6--------------5--6----6------10\8------------5--6-----10------15-----
B -----8----------------------8-------------8---------------8---------8------11---------
G --7-----------------7----7----------7------------------7------------------------------
D --------------------------------------------------------------------------------------
A --------------------------------------------------------------------------------------
E --------------------------------------------------------------------------------------

E ----------------10--6-----------------------------------------------------------------
B -------11-10-8---------8--------8--7--------------------------------------------------
G --12----------------------7-----7--7--------------------------------------------------
D --------------------------------------------------------------------------------------
A --------------------------------------------------------------------------------------
E --------------------------------------------------------------------------------------


************************************

| /   slide up
| \   slide down
| h   hammer-on
| p   pull-off
| ~   vibrato
| +   harmonic
| x   Mute note
| b   Bend
| pb  Pre-bend
| br  Bend release
| pbr Pre-bend release
| brb Bend release bend

************************************
Добавлено: 17.12.2015
Вам также может быть интересно:
Другие материалы по этой песне:
  • Аккорды и текст

Страница создана 17.12.2015
http://primanota.ru/star-wars-music/force-theme-chords.htm
Привет, Гость.
Предлагаем пройти революционный курс по гитаре.
Подарок от PrimaNota.Ru, забирай!