PrimaNota.ru - самый крупный в мире бесплатный архив песенных текстов, аккордов, табулатур и нот


Star Fucking Hipsters - Media Person - бас-таба, видео

Регистрация Запомнить меня
Войти через:  Facebook Google Twitter Vk Yandex Mail.ru

Star Fucking Hipsters - Media Person - бас-таба, видео

Печатать
Просмотров: 72
Авторы: Rudimentary Peni

A criminally underrated cover of the
Rudimentary Peni song of the same name
by Star Fucking Hipsters.
It's a fairly basic and only has 2 parts
in the entire song so it's not too complex


Intro / Verses
G|---------------------------------------------------------------------------|
D|---------------------------------------------------------------------------|
A|-------4-4-4-4-------------------------------------------------------------|
E|-2-2-2---------4-4-4-5-5-5-5-----------------------------------------------|

Chorus
G|---------------------------------------------------------------------------|
D|---------------------------(4)---------------------------------------------|
A|-----------1/6-6-6-6-6--(4)------------------------------------------------|
E|-2-2-2-2-2-----------------------------------------------------------------|
The last verse has a little outro
at the end of it, which i've put in 
brackets


| /  slide up
| \  slide down
| h  hammer-on
| p  pull-off
| ~  vibrato
| +  harmonic
| x  Mute note
===============================================================================
Добавлено: 18.12.2015
Другие материалы по этой песне:
  • Аккорды и текст

Страница создана 18.12.2015
http://primanota.ru/star-fucking-hipsters/media-person-chords.htm
Привет, Гость.
Предлагаем пройти революционный курс по гитаре.
Подарок от PrimaNota.Ru, забирай!