PrimaNota.ru - самый крупный в мире бесплатный архив песенных текстов, аккордов, табулатур и нот


Staple - Rise Of The Robots - текст песни, таба, видео

Регистрация Запомнить меня
Войти через:  Facebook Google Twitter Vk Yandex Mail.ru

Staple - Rise Of The Robots - текст песни, таба, видео

Печатать
Просмотров: 159
Staple
Rise Of The Robots
Tabbed By U B the band
Tuning Drop C

pm-palm mute

Intro: (Turn your pick sideways as if you're sawing at the strings)
D|-------------------------------------------------------|
A|-------------------------------------------------------|
F|--7----------------------------------------------------|
C|--6----------------------------------------------------|
G|--5----------------------------------------------------|
C|--0----------------------------------------------------|

Intro continued: (regular strumming)
D|-------------------------------------------------------|
A|-------------------------------------------------------|
F|--77---77777---77---77777---77---77777---77---77777----|
C|--66---66666---66---66666---66---66666---66---66666----|
G|--55---55555---55---55555---55---55555---55---55555----|
C|-------------------------------------------------------|

D|-------------------------------------------------------|
A|-------------------------------------------------------|
F|-----7-------7----7-------7----7-------7----7-------7--|
C|--00-6-00000-6-00-6-00000-6-00-6-00000-6-00-6-00000-6--|
G|--00-5-00000-5-00-5-00000-5-00-5-00000-5-00-5-00000-5--|
C|--00---00000---00---00000---00---00000---00---00000----|
    pm   pmpmpm  pm   pmpmpm  pm   pmpmpm  pm   pmpmpm

D|--------------|
A|--------------|
F|--77---77777--|
C|--66---66666--|
G|--55---55555--|
C|--------------|

What do you think so far?
Добавлено: 01.06.2012
Другие материалы по этой песне:
  • Аккорды и текст

Страница создана 28.03.2012
http://primanota.ru/staple/rise-of-the-robots-chords.htm
Привет, Гость.
Предлагаем пройти революционный курс по гитаре.
Подарок от PrimaNota.Ru, забирай!