PrimaNota.ru - самый крупный в мире бесплатный архив песенных текстов, аккордов, табулатур и нот


Stanford Prison Experiment - Disbelief - аккорды и текст, таба, видео

Регистрация Запомнить меня
Войти через:  Facebook Google Twitter Vk Yandex Mail.ru

Stanford Prison Experiment - Disbelief - аккорды и текст, таба, видео

Печатать
Просмотров: 113
Disbelief
Stanford Prison Experiment
		   SONG:       disbelief
ARTIST:     Stanford Prison Experiment
ALBUM:      Stanford Prison Experiment
TRACK:      #1
TABBED BY:  Rich Cooper.
            (k943707@king.ac.uk)   until june 1997
          or(RichardC@mai.sprint.com)   until june 1996

Anyone who want's to talk to me about S.P.E and any other
similar bands or any hardcore bands.  Just mail and i'll
make sure i reply!

This isn't totally right  :(
     especially the "noisy" part which i can't
     play properly coz i can't distort my guitar
     that much.   I think it's possible to tab the
     bass line at this point and knock it up a couple
     of octaves.   That might work.   :)

The solo is missing  :(
     I'll tab it in the future as it's not that
     hard to work out  :)

I will tab more Stanford Prison Experiment   :)
     and if anyone likes them as much as i do
     then get tabbing and help me out with any
     mistakes i've made.

Thanks all and i hope you enjoy playing this coz i do.

Peace out......Rich.

___________________________THE TAB____________________________

INTRO (PART A)
e:|------------------------------------------------------
B:|------------------------------------------------------
G:|---10-10-10-10-10-10-10-10-10-10-10-10-10-10-10-10----
D:|------------------------------------------------------
A:|------------------------------------------------------
E:|------------------------------------------------------

INTRO (PART B)
e:|------------------------------------------------------
B:|------------------------------------------------------
G:|---10b^-10b^-10b^-10b^-10b^-10b^-10b^-10b^-10b^-10b^--
D:|------------------------------------------------------
A:|------------------------------------------------------
E:|------------------------------------------------------
     {just bend that note around!}

VERSE (PART C)
e:|------------------------------------------------------
B:|------------------------------------------------------
G:|------------------------------------------------------
D:|--5---5---5---------8---8---8---8--------------------
A:|--5---5---5---2-----8---8---8---8---------------------
E:|--3---3---3---0-----6---6---6---6---------------------

VERSE (PART D)
e:|------------------------------------------------------
B:|------------------------------------------------------
G:|------------------------------------------------------
D:|--5---5---5-------------8---8---8--------------------
A:|--5---5---5---2---------8---8---8---------------------
E:|--3---3---3---0---------6---6---6---------------------

CHORUS (PART E)
e:|------------------------------------------------------
B:|------------------------------------------------------
G:|------------------------------------------------------
D:|--5-5-5-5-5--4---3--3-3-3---66-66-66-66---------------
A:|--5-5-5-5-5--4---3--3-3-3---66-66-66-66---------------
E:|--3-3-3-3-3--2---1--1-1-1---44-44-44-44---------------


NOISY DISTORTED BIT (PART F)    {wrong}
e:|--7-7-7-7-7-7-7-7-7-7-7-7-7-7-7-7-7-7-7-7-7-7---------
B:|--9-9-9-9-9-9-9-9-9-9-9-9-9-9-9-9-9-9-9-9-9-9---------
G:|--9-9-9-9-9-9-9-9-9-9-9-9-9-9-9-9-9-9-9-9-9-9---------
D:|--7-7-7-7-7-7-7-7-7-7-7-7-7-7-7-7-7-7-7-7-7-7---------
A:|------------------------------------------------------
E:|------------------------------------------------------

NOISY DISTORTED OUTRO (PART G)   {totally wrong!}
e:|--7--7--7--7--6-----9--9------------------------------
B:|--9--9--9--9--8-----11-11-----------------------------
G:|--9--9--9--9--8-----11-11-----------------------------
D:|--7--7--7--7--6-----9--9------------------------------
A:|------------------------------------------------------
E:|------------------------------------------------------


Song Structure/Lyrics
~~~~~~~~~~~~~~~~~~~~~

                   		PART A
                    		PART B

you're not a god		PART C
you're not a god		PART C
you're not a god		PART C
you're not a god		PART D

you're just a man who has some  PART C
good ideas			PART C
it got all twisted up		PART C
would you believe it		PART D

the truth aint good enough	PART C
it's way too easy		PART C
it's not enough			PART C
it's way too much		PART D

it's not enough			PART C
it's way too much		PART C

i don't believe			PART E
i don't believe			PART E
i don't believe in you		PART E
i don't believe you're true	PART E

				SOLO/PART C

in the classroom you can be 	PART C
what you never were		PART C
you push us around like you're  PART C
so giant			PART D

you're not a teacher man	PART C
you're a bully			PART C
now you're the boss		PART C
aint it the best		PART D

now you're the boss		PART C
aint it the best		PART C

i don't believe			PART E
i don't believe			PART E
i don't believe in you		PART E
i don't believe you're true	PART E

in the classroom you can be     PART F
what you never were		PART F
you're just a bully man 	PART F
you're no teacher		PART F
you're killing what you can	PART F
just what you can		PART F
you're just a little man 	PART F

i don't believe			PART E
i don't believe			PART E
i don't believe in you		PART E
i don't believe you're true	PART E

in the classroom you can be 	PART F
what you never were		PART F
you're just a bully man 	PART F
you're no teacher		PART F
you're killing what you can	PART F
just what you can		PART F
you're just a little man 	PART F

killer				PART G
killer				PART G
killer				PART G
killer				PART G

___________________________________________________


|~~~~~~~~~~~~~~~~~~~~~~~~~~~~~~~~~~~~~~~~~~~~~~~~~~~~~~~~~~~~~~~~~~~~|
|        RiChArD cOoPeR                 (k943707@king.ac.uk)         |
|      ____         .    _  .                                        |
|     /# /_\_       |\_|/__/|              ________         __&__    |
|    |  |/o\o\     / / \/ \  \            /        \       /     \   |
|    |  \\_/_/    /__|O||O|__ \          | "DOE!!!!"|_    |   _  _|  |
|    / |_   |    |/_ \_/\_/ _\ |          \___________>   |  (o)(o)  |
|   |  ||\_ ~|   | | (____) | ||   ____________________   C   ---_)  |
|   |  ||| \/    \/\___/\__/  // _/                    \  | |  ___|  |
|   |  |||_      (_/         ||  \_ Happy Happy Joy Joy | |  \__/    |
|    \//  |       |          ||    \___________________/  /    \     |
|     ||  |       |          ||\                             ^       |
|     ||_  \       \        //_/       ______________________/|      |
|     \_|  o|       \______//         | MMmmmmm Donuts!!!!!!  /      |
|     /\___/      __ || __||          \______________________/       |
|    /  ||||__   (____(____)                                         |
|       (___)_)                                                      |
|                                                                    |
'~~~~~~~~~~~~~~~~~~~~~~~~~~~~~~~~~~~~~~~~~~~~~~~~~~~~~~~~~~~~~~~~~~~~'     
Добавлено: 05.07.2013
Другие материалы по этой песне:
  • Аккорды и текст

Страница создана 31.03.2012
http://primanota.ru/stanford-prison-experiment/disbelief-chords.htm
Привет, Гость.
Предлагаем пройти революционный курс по гитаре.
Подарок от PrimaNota.Ru, забирай!